ISO-10303-21;
HEADER;
FILE_DESCRIPTION(('STEP Model'),'2;1');
FILE_NAME('FOR-C2.0-35.stp','2012-01-30T12:17:49',(''),(''),
  'CAD Exchanger 2.3.0 (www.cadexchanger.com)','CAD Exchanger 2.3.0',
  'Unknown');
FILE_SCHEMA(('AUTOMOTIVE_DESIGN { 1 0 10303 214 1 1 1 1 }'));
ENDSEC;
DATA;
#1 = APPLICATION_PROTOCOL_DEFINITION('international standard',
  'automotive_design',2000,#2);
#2 = APPLICATION_CONTEXT(
  'core data for automotive mechanical design processes');
#3 = SHAPE_DEFINITION_REPRESENTATION(#4,#10);
#4 = PRODUCT_DEFINITION_SHAPE('','',#5);
#5 = PRODUCT_DEFINITION('design','',#6,#9);
#6 = PRODUCT_DEFINITION_FORMATION('','',#7);
#7 = PRODUCT('Unspecified 3','Unspecified 3','',(#8));
#8 = PRODUCT_CONTEXT('',#2,'mechanical');
#9 = PRODUCT_DEFINITION_CONTEXT('part definition',#2,'design');
#10 = ADVANCED_BREP_SHAPE_REPRESENTATION('',(#11,#15),#487);
#11 = AXIS2_PLACEMENT_3D('',#12,#13,#14);
#12 = CARTESIAN_POINT('',(0.E+000,0.E+000,0.E+000));
#13 = DIRECTION('',(0.E+000,0.E+000,1.));
#14 = DIRECTION('',(1.,0.E+000,-0.E+000));
#15 = MANIFOLD_SOLID_BREP('',#16);
#16 = CLOSED_SHELL('',(#17,#106,#258,#265,#423,#452,#478,#482));
#17 = ADVANCED_FACE('',(#18),#31,.F.);
#18 = FACE_BOUND('',#19,.F.);
#19 = EDGE_LOOP('',(#20,#57,#79,#105));
#20 = ORIENTED_EDGE('',*,*,#21,.T.);
#21 = EDGE_CURVE('',#22,#22,#24,.T.);
#22 = VERTEX_POINT('',#23);
#23 = CARTESIAN_POINT('',(-2.5,-2.84217094304E-014,30.));
#24 = SURFACE_CURVE('',#25,(#30,#41),.PCURVE_S1.);
#25 = CIRCLE('',#26,2.5);
#26 = AXIS2_PLACEMENT_3D('',#27,#28,#29);
#27 = CARTESIAN_POINT('',(0.E+000,0.E+000,30.));
#28 = DIRECTION('',(0.E+000,0.E+000,-1.));
#29 = DIRECTION('',(1.,0.E+000,0.E+000));
#30 = PCURVE('',#31,#36);
#31 = CYLINDRICAL_SURFACE('',#32,2.5);
#32 = AXIS2_PLACEMENT_3D('',#33,#34,#35);
#33 = CARTESIAN_POINT('',(0.E+000,0.E+000,25.));
#34 = DIRECTION('',(0.E+000,0.E+000,1.));
#35 = DIRECTION('',(1.,0.E+000,-0.E+000));
#36 = DEFINITIONAL_REPRESENTATION('',(#37),#40);
#37 = B_SPLINE_CURVE_WITH_KNOTS('',1,(#38,#39),.UNSPECIFIED.,.F.,.F.,(2,
    2),(3.14159265359,9.424777960769),.PIECEWISE_BEZIER_KNOTS.);
#38 = CARTESIAN_POINT('',(9.424777960769,5.));
#39 = CARTESIAN_POINT('',(3.14159265359,5.));
#40 = ( GEOMETRIC_REPRESENTATION_CONTEXT(2) 
PARAMETRIC_REPRESENTATION_CONTEXT() REPRESENTATION_CONTEXT('2D SPACE',''
  ) );
#41 = PCURVE('',#42,#47);
#42 = PLANE('',#43);
#43 = AXIS2_PLACEMENT_3D('',#44,#45,#46);
#44 = CARTESIAN_POINT('',(0.E+000,0.E+000,30.));
#45 = DIRECTION('',(0.E+000,0.E+000,1.));
#46 = DIRECTION('',(1.,0.E+000,-0.E+000));
#47 = DEFINITIONAL_REPRESENTATION('',(#48),#56);
#48 = ( BOUNDED_CURVE() B_SPLINE_CURVE(2,(#49,#50,#51,#52,#53,#54,#55),
.UNSPECIFIED.,.T.,.F.) B_SPLINE_CURVE_WITH_KNOTS((1,2,2,2,2,1),(
    -2.094395102393,0.E+000,2.094395102393,4.188790204786,6.28318530718,
8.377580409573),.UNSPECIFIED.) CURVE() GEOMETRIC_REPRESENTATION_ITEM() 
RATIONAL_B_SPLINE_CURVE((1.,0.5,1.,0.5,1.,0.5,1.)) REPRESENTATION_ITEM(
  '') );
#49 = CARTESIAN_POINT('',(2.5,0.E+000));
#50 = CARTESIAN_POINT('',(2.5,-4.330127018922));
#51 = CARTESIAN_POINT('',(-1.25,-2.165063509461));
#52 = CARTESIAN_POINT('',(-5.,-6.123233995737E-016));
#53 = CARTESIAN_POINT('',(-1.25,2.165063509461));
#54 = CARTESIAN_POINT('',(2.5,4.330127018922));
#55 = CARTESIAN_POINT('',(2.5,0.E+000));
#56 = ( GEOMETRIC_REPRESENTATION_CONTEXT(2) 
PARAMETRIC_REPRESENTATION_CONTEXT() REPRESENTATION_CONTEXT('2D SPACE',''
  ) );
#57 = ORIENTED_EDGE('',*,*,#58,.F.);
#58 = EDGE_CURVE('',#59,#22,#61,.T.);
#59 = VERTEX_POINT('',#60);
#60 = CARTESIAN_POINT('',(-2.5,1.079606854646E-014,-8.));
#61 = SEAM_CURVE('',#62,(#65,#72),.PCURVE_S1.);
#62 = B_SPLINE_CURVE_WITH_KNOTS('',1,(#63,#64),.UNSPECIFIED.,.F.,.F.,(2,
    2),(-33.,5.),.PIECEWISE_BEZIER_KNOTS.);
#63 = CARTESIAN_POINT('',(-2.5,-2.633919089122E-014,-8.));
#64 = CARTESIAN_POINT('',(-2.5,-2.633919089122E-014,30.));
#65 = PCURVE('',#31,#66);
#66 = DEFINITIONAL_REPRESENTATION('',(#67),#71);
#67 = LINE('',#68,#69);
#68 = CARTESIAN_POINT('',(3.14159265359,0.E+000));
#69 = VECTOR('',#70,1.);
#70 = DIRECTION('',(0.E+000,1.));
#71 = ( GEOMETRIC_REPRESENTATION_CONTEXT(2) 
PARAMETRIC_REPRESENTATION_CONTEXT() REPRESENTATION_CONTEXT('2D SPACE',''
  ) );
#72 = PCURVE('',#31,#73);
#73 = DEFINITIONAL_REPRESENTATION('',(#74),#78);
#74 = LINE('',#75,#76);
#75 = CARTESIAN_POINT('',(9.424777960769,0.E+000));
#76 = VECTOR('',#77,1.);
#77 = DIRECTION('',(0.E+000,1.));
#78 = ( GEOMETRIC_REPRESENTATION_CONTEXT(2) 
PARAMETRIC_REPRESENTATION_CONTEXT() REPRESENTATION_CONTEXT('2D SPACE',''
  ) );
#79 = ORIENTED_EDGE('',*,*,#80,.T.);
#80 = EDGE_CURVE('',#59,#59,#81,.T.);
#81 = SURFACE_CURVE('',#82,(#87,#93),.PCURVE_S1.);
#82 = CIRCLE('',#83,2.5);
#83 = AXIS2_PLACEMENT_3D('',#84,#85,#86);
#84 = CARTESIAN_POINT('',(0.E+000,-6.661338147751E-015,-8.));
#85 = DIRECTION('',(0.E+000,2.22044604925E-016,1.));
#86 = DIRECTION('',(1.,0.E+000,-0.E+000));
#87 = PCURVE('',#31,#88);
#88 = DEFINITIONAL_REPRESENTATION('',(#89),#92);
#89 = B_SPLINE_CURVE_WITH_KNOTS('',1,(#90,#91),.UNSPECIFIED.,.F.,.F.,(2,
    2),(3.14159265359,9.424777960769),.PIECEWISE_BEZIER_KNOTS.);
#90 = CARTESIAN_POINT('',(3.14159265359,-33.));
#91 = CARTESIAN_POINT('',(9.424777960769,-33.));
#92 = ( GEOMETRIC_REPRESENTATION_CONTEXT(2) 
PARAMETRIC_REPRESENTATION_CONTEXT() REPRESENTATION_CONTEXT('2D SPACE',''
  ) );
#93 = PCURVE('',#94,#99);
#94 = PLANE('',#95);
#95 = AXIS2_PLACEMENT_3D('',#96,#97,#98);
#96 = CARTESIAN_POINT('',(0.E+000,-3.10862446895E-015,-8.));
#97 = DIRECTION('',(0.E+000,2.22044604925E-016,1.));
#98 = DIRECTION('',(-1.,0.E+000,0.E+000));
#99 = DEFINITIONAL_REPRESENTATION('',(#100),#104);
#100 = CIRCLE('',#101,2.5);
#101 = AXIS2_PLACEMENT_2D('',#102,#103);
#102 = CARTESIAN_POINT('',(0.E+000,3.552713678801E-015));
#103 = DIRECTION('',(-1.,0.E+000));
#104 = ( GEOMETRIC_REPRESENTATION_CONTEXT(2) 
PARAMETRIC_REPRESENTATION_CONTEXT() REPRESENTATION_CONTEXT('2D SPACE',''
  ) );
#105 = ORIENTED_EDGE('',*,*,#58,.T.);
#106 = ADVANCED_FACE('',(#107),#120,.T.);
#107 = FACE_BOUND('',#108,.T.);
#108 = EDGE_LOOP('',(#109,#187,#209,#257));
#109 = ORIENTED_EDGE('',*,*,#110,.T.);
#110 = EDGE_CURVE('',#111,#111,#113,.T.);
#111 = VERTEX_POINT('',#112);
#112 = CARTESIAN_POINT('',(11.,-8.526512829121E-014,25.));
#113 = SURFACE_CURVE('',#114,(#119,#153),.PCURVE_S1.);
#114 = CIRCLE('',#115,11.);
#115 = AXIS2_PLACEMENT_3D('',#116,#117,#118);
#116 = CARTESIAN_POINT('',(0.E+000,0.E+000,25.));
#117 = DIRECTION('',(0.E+000,0.E+000,1.));
#118 = DIRECTION('',(-1.,0.E+000,0.E+000));
#119 = PCURVE('',#120,#125);
#120 = CONICAL_SURFACE('',#121,8.5,0.785398163397);
#121 = AXIS2_PLACEMENT_3D('',#122,#123,#124);
#122 = CARTESIAN_POINT('',(0.E+000,0.E+000,27.5));
#123 = DIRECTION('',(-0.E+000,-0.E+000,-1.));
#124 = DIRECTION('',(-1.,0.E+000,0.E+000));
#125 = DEFINITIONAL_REPRESENTATION('',(#126),#152);
#126 = B_SPLINE_CURVE_WITH_KNOTS('',3,(#127,#128,#129,#130,#131,#132,
    #133,#134,#135,#136,#137,#138,#139,#140,#141,#142,#143,#144,#145,
    #146,#147,#148,#149,#150,#151),.UNSPECIFIED.,.F.,.F.,(4,1,1,1,1,1,1,
    1,1,1,1,1,1,1,1,1,1,1,1,1,1,1,4),(3.14159265359,3.427191985734,
    3.712791317879,3.998390650023,4.283989982168,4.569589314312,
    4.855188646457,5.140787978601,5.426387310746,5.711986642891,
    5.997585975035,6.28318530718,6.568784639324,6.854383971469,
    7.139983303613,7.425582635758,7.711181967902,7.996781300047,
    8.282380632191,8.567979964336,8.85357929648,9.139178628625,
    9.424777960769),.QUASI_UNIFORM_KNOTS.);
#127 = CARTESIAN_POINT('',(-3.14159265359,2.5));
#128 = CARTESIAN_POINT('',(-3.236792430971,2.5));
#129 = CARTESIAN_POINT('',(-3.427191985734,2.5));
#130 = CARTESIAN_POINT('',(-3.712791317879,2.5));
#131 = CARTESIAN_POINT('',(-3.998390650023,2.5));
#132 = CARTESIAN_POINT('',(-4.283989982168,2.5));
#133 = CARTESIAN_POINT('',(-4.569589314312,2.5));
#134 = CARTESIAN_POINT('',(-4.855188646457,2.5));
#135 = CARTESIAN_POINT('',(-5.140787978601,2.5));
#136 = CARTESIAN_POINT('',(-5.426387310746,2.5));
#137 = CARTESIAN_POINT('',(-5.711986642891,2.5));
#138 = CARTESIAN_POINT('',(-5.997585975035,2.5));
#139 = CARTESIAN_POINT('',(-6.28318530718,2.5));
#140 = CARTESIAN_POINT('',(-6.568784639324,2.5));
#141 = CARTESIAN_POINT('',(-6.854383971469,2.5));
#142 = CARTESIAN_POINT('',(-7.139983303613,2.5));
#143 = CARTESIAN_POINT('',(-7.425582635758,2.5));
#144 = CARTESIAN_POINT('',(-7.711181967902,2.5));
#145 = CARTESIAN_POINT('',(-7.996781300047,2.5));
#146 = CARTESIAN_POINT('',(-8.282380632191,2.5));
#147 = CARTESIAN_POINT('',(-8.567979964336,2.5));
#148 = CARTESIAN_POINT('',(-8.85357929648,2.5));
#149 = CARTESIAN_POINT('',(-9.139178628625,2.5));
#150 = CARTESIAN_POINT('',(-9.329578183388,2.5));
#151 = CARTESIAN_POINT('',(-9.424777960769,2.5));
#152 = ( GEOMETRIC_REPRESENTATION_CONTEXT(2) 
PARAMETRIC_REPRESENTATION_CONTEXT() REPRESENTATION_CONTEXT('2D SPACE',''
  ) );
#153 = PCURVE('',#154,#159);
#154 = CYLINDRICAL_SURFACE('',#155,11.);
#155 = AXIS2_PLACEMENT_3D('',#156,#157,#158);
#156 = CARTESIAN_POINT('',(0.E+000,-1.998401444325E-015,-3.));
#157 = DIRECTION('',(0.E+000,-2.22044604925E-016,-1.));
#158 = DIRECTION('',(1.,0.E+000,0.E+000));
#159 = DEFINITIONAL_REPRESENTATION('',(#160),#186);
#160 = B_SPLINE_CURVE_WITH_KNOTS('',3,(#161,#162,#163,#164,#165,#166,
    #167,#168,#169,#170,#171,#172,#173,#174,#175,#176,#177,#178,#179,
    #180,#181,#182,#183,#184,#185),.UNSPECIFIED.,.F.,.F.,(4,1,1,1,1,1,1,
    1,1,1,1,1,1,1,1,1,1,1,1,1,1,1,4),(3.14159265359,3.427191985734,
    3.712791317879,3.998390650023,4.283989982168,4.569589314312,
    4.855188646457,5.140787978601,5.426387310746,5.711986642891,
    5.997585975035,6.28318530718,6.568784639324,6.854383971469,
    7.139983303613,7.425582635758,7.711181967902,7.996781300047,
    8.282380632191,8.567979964336,8.85357929648,9.139178628625,
    9.424777960769),.QUASI_UNIFORM_KNOTS.);
#161 = CARTESIAN_POINT('',(6.28318530718,-28.));
#162 = CARTESIAN_POINT('',(6.187985529798,-28.));
#163 = CARTESIAN_POINT('',(5.997585975035,-28.));
#164 = CARTESIAN_POINT('',(5.711986642891,-28.));
#165 = CARTESIAN_POINT('',(5.426387310746,-28.));
#166 = CARTESIAN_POINT('',(5.140787978601,-28.));
#167 = CARTESIAN_POINT('',(4.855188646457,-28.));
#168 = CARTESIAN_POINT('',(4.569589314312,-28.));
#169 = CARTESIAN_POINT('',(4.283989982168,-28.));
#170 = CARTESIAN_POINT('',(3.998390650023,-28.));
#171 = CARTESIAN_POINT('',(3.712791317879,-28.));
#172 = CARTESIAN_POINT('',(3.427191985734,-28.));
#173 = CARTESIAN_POINT('',(3.14159265359,-28.));
#174 = CARTESIAN_POINT('',(2.855993321445,-28.));
#175 = CARTESIAN_POINT('',(2.570393989301,-28.));
#176 = CARTESIAN_POINT('',(2.284794657156,-28.));
#177 = CARTESIAN_POINT('',(1.999195325012,-28.));
#178 = CARTESIAN_POINT('',(1.713595992867,-28.));
#179 = CARTESIAN_POINT('',(1.427996660723,-28.));
#180 = CARTESIAN_POINT('',(1.142397328578,-28.));
#181 = CARTESIAN_POINT('',(0.856797996434,-28.));
#182 = CARTESIAN_POINT('',(0.571198664289,-28.));
#183 = CARTESIAN_POINT('',(0.285599332145,-28.));
#184 = CARTESIAN_POINT('',(9.519977738152E-002,-28.));
#185 = CARTESIAN_POINT('',(7.993605777301E-015,-28.));
#186 = ( GEOMETRIC_REPRESENTATION_CONTEXT(2) 
PARAMETRIC_REPRESENTATION_CONTEXT() REPRESENTATION_CONTEXT('2D SPACE',''
  ) );
#187 = ORIENTED_EDGE('',*,*,#188,.T.);
#188 = EDGE_CURVE('',#111,#189,#191,.T.);
#189 = VERTEX_POINT('',#190);
#190 = CARTESIAN_POINT('',(6.,-5.684341886081E-014,30.));
#191 = SEAM_CURVE('',#192,(#195,#202),.PCURVE_S1.);
#192 = B_SPLINE_CURVE_WITH_KNOTS('',1,(#193,#194),.UNSPECIFIED.,.F.,.F.,
  (2,2),(-3.535533905933,3.535533905933),.PIECEWISE_BEZIER_KNOTS.);
#193 = CARTESIAN_POINT('',(11.,-7.950681241267E-014,25.));
#194 = CARTESIAN_POINT('',(6.,-4.336735222509E-014,30.));
#195 = PCURVE('',#120,#196);
#196 = DEFINITIONAL_REPRESENTATION('',(#197),#201);
#197 = LINE('',#198,#199);
#198 = CARTESIAN_POINT('',(-9.424777960769,-0.E+000));
#199 = VECTOR('',#200,1.);
#200 = DIRECTION('',(-0.E+000,-1.));
#201 = ( GEOMETRIC_REPRESENTATION_CONTEXT(2) 
PARAMETRIC_REPRESENTATION_CONTEXT() REPRESENTATION_CONTEXT('2D SPACE',''
  ) );
#202 = PCURVE('',#120,#203);
#203 = DEFINITIONAL_REPRESENTATION('',(#204),#208);
#204 = LINE('',#205,#206);
#205 = CARTESIAN_POINT('',(-3.14159265359,-0.E+000));
#206 = VECTOR('',#207,1.);
#207 = DIRECTION('',(-0.E+000,-1.));
#208 = ( GEOMETRIC_REPRESENTATION_CONTEXT(2) 
PARAMETRIC_REPRESENTATION_CONTEXT() REPRESENTATION_CONTEXT('2D SPACE',''
  ) );
#209 = ORIENTED_EDGE('',*,*,#210,.T.);
#210 = EDGE_CURVE('',#189,#189,#211,.T.);
#211 = SURFACE_CURVE('',#212,(#217,#246),.PCURVE_S1.);
#212 = CIRCLE('',#213,6.);
#213 = AXIS2_PLACEMENT_3D('',#214,#215,#216);
#214 = CARTESIAN_POINT('',(0.E+000,0.E+000,30.));
#215 = DIRECTION('',(-0.E+000,0.E+000,-1.));
#216 = DIRECTION('',(-1.,0.E+000,0.E+000));
#217 = PCURVE('',#120,#218);
#218 = DEFINITIONAL_REPRESENTATION('',(#219),#245);
#219 = B_SPLINE_CURVE_WITH_KNOTS('',3,(#220,#221,#222,#223,#224,#225,
    #226,#227,#228,#229,#230,#231,#232,#233,#234,#235,#236,#237,#238,
    #239,#240,#241,#242,#243,#244),.UNSPECIFIED.,.F.,.F.,(4,1,1,1,1,1,1,
    1,1,1,1,1,1,1,1,1,1,1,1,1,1,1,4),(3.14159265359,3.427191985734,
    3.712791317879,3.998390650023,4.283989982168,4.569589314312,
    4.855188646457,5.140787978601,5.426387310746,5.711986642891,
    5.997585975035,6.28318530718,6.568784639324,6.854383971469,
    7.139983303613,7.425582635758,7.711181967902,7.996781300047,
    8.282380632191,8.567979964336,8.85357929648,9.139178628625,
    9.424777960769),.QUASI_UNIFORM_KNOTS.);
#220 = CARTESIAN_POINT('',(-9.424777960769,-2.5));
#221 = CARTESIAN_POINT('',(-9.329578183388,-2.5));
#222 = CARTESIAN_POINT('',(-9.139178628625,-2.5));
#223 = CARTESIAN_POINT('',(-8.85357929648,-2.5));
#224 = CARTESIAN_POINT('',(-8.567979964336,-2.5));
#225 = CARTESIAN_POINT('',(-8.282380632191,-2.5));
#226 = CARTESIAN_POINT('',(-7.996781300047,-2.5));
#227 = CARTESIAN_POINT('',(-7.711181967902,-2.5));
#228 = CARTESIAN_POINT('',(-7.425582635758,-2.5));
#229 = CARTESIAN_POINT('',(-7.139983303613,-2.5));
#230 = CARTESIAN_POINT('',(-6.854383971469,-2.5));
#231 = CARTESIAN_POINT('',(-6.568784639324,-2.5));
#232 = CARTESIAN_POINT('',(-6.28318530718,-2.5));
#233 = CARTESIAN_POINT('',(-5.997585975035,-2.5));
#234 = CARTESIAN_POINT('',(-5.711986642891,-2.5));
#235 = CARTESIAN_POINT('',(-5.426387310746,-2.5));
#236 = CARTESIAN_POINT('',(-5.140787978601,-2.5));
#237 = CARTESIAN_POINT('',(-4.855188646457,-2.5));
#238 = CARTESIAN_POINT('',(-4.569589314312,-2.5));
#239 = CARTESIAN_POINT('',(-4.283989982168,-2.5));
#240 = CARTESIAN_POINT('',(-3.998390650023,-2.5));
#241 = CARTESIAN_POINT('',(-3.712791317879,-2.5));
#242 = CARTESIAN_POINT('',(-3.427191985734,-2.5));
#243 = CARTESIAN_POINT('',(-3.236792430971,-2.5));
#244 = CARTESIAN_POINT('',(-3.14159265359,-2.5));
#245 = ( GEOMETRIC_REPRESENTATION_CONTEXT(2) 
PARAMETRIC_REPRESENTATION_CONTEXT() REPRESENTATION_CONTEXT('2D SPACE',''
  ) );
#246 = PCURVE('',#42,#247);
#247 = DEFINITIONAL_REPRESENTATION('',(#248),#256);
#248 = ( BOUNDED_CURVE() B_SPLINE_CURVE(2,(#249,#250,#251,#252,#253,#254
,#255),.UNSPECIFIED.,.T.,.F.) B_SPLINE_CURVE_WITH_KNOTS((1,2,2,2,2,1),(
    -2.094395102393,0.E+000,2.094395102393,4.188790204786,6.28318530718,
8.377580409573),.UNSPECIFIED.) CURVE() GEOMETRIC_REPRESENTATION_ITEM() 
RATIONAL_B_SPLINE_CURVE((1.,0.5,1.,0.5,1.,0.5,1.)) REPRESENTATION_ITEM(
  '') );
#249 = CARTESIAN_POINT('',(-6.,0.E+000));
#250 = CARTESIAN_POINT('',(-6.,10.392304845413));
#251 = CARTESIAN_POINT('',(3.,5.196152422707));
#252 = CARTESIAN_POINT('',(12.,1.469576158977E-015));
#253 = CARTESIAN_POINT('',(3.,-5.196152422707));
#254 = CARTESIAN_POINT('',(-6.,-10.39230484541));
#255 = CARTESIAN_POINT('',(-6.,0.E+000));
#256 = ( GEOMETRIC_REPRESENTATION_CONTEXT(2) 
PARAMETRIC_REPRESENTATION_CONTEXT() REPRESENTATION_CONTEXT('2D SPACE',''
  ) );
#257 = ORIENTED_EDGE('',*,*,#188,.F.);
#258 = ADVANCED_FACE('',(#259,#262),#42,.T.);
#259 = FACE_BOUND('',#260,.T.);
#260 = EDGE_LOOP('',(#261));
#261 = ORIENTED_EDGE('',*,*,#21,.T.);
#262 = FACE_BOUND('',#263,.T.);
#263 = EDGE_LOOP('',(#264));
#264 = ORIENTED_EDGE('',*,*,#210,.F.);
#265 = ADVANCED_FACE('',(#266),#279,.F.);
#266 = FACE_BOUND('',#267,.F.);
#267 = EDGE_LOOP('',(#268,#305,#327,#378,#422));
#268 = ORIENTED_EDGE('',*,*,#269,.T.);
#269 = EDGE_CURVE('',#270,#270,#272,.T.);
#270 = VERTEX_POINT('',#271);
#271 = CARTESIAN_POINT('',(10.,0.E+000,-33.));
#272 = SURFACE_CURVE('',#273,(#278,#289),.PCURVE_S1.);
#273 = CIRCLE('',#274,10.);
#274 = AXIS2_PLACEMENT_3D('',#275,#276,#277);
#275 = CARTESIAN_POINT('',(0.E+000,0.E+000,-33.));
#276 = DIRECTION('',(0.E+000,0.E+000,1.));
#277 = DIRECTION('',(1.,0.E+000,-0.E+000));
#278 = PCURVE('',#279,#284);
#279 = CYLINDRICAL_SURFACE('',#280,10.);
#280 = AXIS2_PLACEMENT_3D('',#281,#282,#283);
#281 = CARTESIAN_POINT('',(0.E+000,0.E+000,-31.));
#282 = DIRECTION('',(0.E+000,0.E+000,1.));
#283 = DIRECTION('',(1.,0.E+000,-0.E+000));
#284 = DEFINITIONAL_REPRESENTATION('',(#285),#288);
#285 = B_SPLINE_CURVE_WITH_KNOTS('',1,(#286,#287),.UNSPECIFIED.,.F.,.F.,
  (2,2),(0.E+000,6.28318530718),.PIECEWISE_BEZIER_KNOTS.);
#286 = CARTESIAN_POINT('',(0.E+000,-2.));
#287 = CARTESIAN_POINT('',(6.28318530718,-2.));
#288 = ( GEOMETRIC_REPRESENTATION_CONTEXT(2) 
PARAMETRIC_REPRESENTATION_CONTEXT() REPRESENTATION_CONTEXT('2D SPACE',''
  ) );
#289 = PCURVE('',#290,#295);
#290 = PLANE('',#291);
#291 = AXIS2_PLACEMENT_3D('',#292,#293,#294);
#292 = CARTESIAN_POINT('',(0.E+000,0.E+000,-33.));
#293 = DIRECTION('',(0.E+000,0.E+000,-1.));
#294 = DIRECTION('',(-1.,0.E+000,0.E+000));
#295 = DEFINITIONAL_REPRESENTATION('',(#296),#304);
#296 = ( BOUNDED_CURVE() B_SPLINE_CURVE(2,(#297,#298,#299,#300,#301,#302
,#303),.UNSPECIFIED.,.T.,.F.) B_SPLINE_CURVE_WITH_KNOTS((1,2,2,2,2,1),(
    -2.094395102393,0.E+000,2.094395102393,4.188790204786,6.28318530718,
8.377580409573),.UNSPECIFIED.) CURVE() GEOMETRIC_REPRESENTATION_ITEM() 
RATIONAL_B_SPLINE_CURVE((1.,0.5,1.,0.5,1.,0.5,1.)) REPRESENTATION_ITEM(
  '') );
#297 = CARTESIAN_POINT('',(-10.,0.E+000));
#298 = CARTESIAN_POINT('',(-10.,17.320508075689));
#299 = CARTESIAN_POINT('',(5.,8.660254037844));
#300 = CARTESIAN_POINT('',(20.,2.449293598295E-015));
#301 = CARTESIAN_POINT('',(5.,-8.660254037844));
#302 = CARTESIAN_POINT('',(-10.,-17.32050807568));
#303 = CARTESIAN_POINT('',(-10.,0.E+000));
#304 = ( GEOMETRIC_REPRESENTATION_CONTEXT(2) 
PARAMETRIC_REPRESENTATION_CONTEXT() REPRESENTATION_CONTEXT('2D SPACE',''
  ) );
#305 = ORIENTED_EDGE('',*,*,#306,.T.);
#306 = EDGE_CURVE('',#270,#307,#309,.T.);
#307 = VERTEX_POINT('',#308);
#308 = CARTESIAN_POINT('',(10.,-2.775557561563E-016,-28.));
#309 = SEAM_CURVE('',#310,(#313,#320),.PCURVE_S1.);
#310 = B_SPLINE_CURVE_WITH_KNOTS('',1,(#311,#312),.UNSPECIFIED.,.F.,.F.,
  (2,2),(-2.,3.),.PIECEWISE_BEZIER_KNOTS.);
#311 = CARTESIAN_POINT('',(10.,0.E+000,-33.));
#312 = CARTESIAN_POINT('',(10.,0.E+000,-28.));
#313 = PCURVE('',#279,#314);
#314 = DEFINITIONAL_REPRESENTATION('',(#315),#319);
#315 = LINE('',#316,#317);
#316 = CARTESIAN_POINT('',(6.28318530718,0.E+000));
#317 = VECTOR('',#318,1.);
#318 = DIRECTION('',(0.E+000,1.));
#319 = ( GEOMETRIC_REPRESENTATION_CONTEXT(2) 
PARAMETRIC_REPRESENTATION_CONTEXT() REPRESENTATION_CONTEXT('2D SPACE',''
  ) );
#320 = PCURVE('',#279,#321);
#321 = DEFINITIONAL_REPRESENTATION('',(#322),#326);
#322 = LINE('',#323,#324);
#323 = CARTESIAN_POINT('',(0.E+000,0.E+000));
#324 = VECTOR('',#325,1.);
#325 = DIRECTION('',(0.E+000,1.));
#326 = ( GEOMETRIC_REPRESENTATION_CONTEXT(2) 
PARAMETRIC_REPRESENTATION_CONTEXT() REPRESENTATION_CONTEXT('2D SPACE',''
  ) );
#327 = ORIENTED_EDGE('',*,*,#328,.T.);
#328 = EDGE_CURVE('',#307,#329,#331,.T.);
#329 = VERTEX_POINT('',#330);
#330 = CARTESIAN_POINT('',(-10.,-6.982962677686E-014,-28.));
#331 = SURFACE_CURVE('',#332,(#337,#366),.PCURVE_S1.);
#332 = CIRCLE('',#333,10.);
#333 = AXIS2_PLACEMENT_3D('',#334,#335,#336);
#334 = CARTESIAN_POINT('',(0.E+000,0.E+000,-28.));
#335 = DIRECTION('',(0.E+000,-2.22044604925E-016,-1.));
#336 = DIRECTION('',(1.,0.E+000,0.E+000));
#337 = PCURVE('',#279,#338);
#338 = DEFINITIONAL_REPRESENTATION('',(#339),#365);
#339 = B_SPLINE_CURVE_WITH_KNOTS('',3,(#340,#341,#342,#343,#344,#345,
    #346,#347,#348,#349,#350,#351,#352,#353,#354,#355,#356,#357,#358,
    #359,#360,#361,#362,#363,#364),.UNSPECIFIED.,.F.,.F.,(4,1,1,1,1,1,1,
    1,1,1,1,1,1,1,1,1,1,1,1,1,1,1,4),(3.14159265359,3.427191985734,
    3.712791317879,3.998390650023,4.283989982168,4.569589314312,
    4.855188646457,5.140787978601,5.426387310746,5.711986642891,
    5.997585975035,6.28318530718,6.568784639324,6.854383971469,
    7.139983303613,7.425582635758,7.711181967902,7.996781300047,
    8.282380632191,8.567979964336,8.85357929648,9.139178628625,
    9.424777960769),.QUASI_UNIFORM_KNOTS.);
#340 = CARTESIAN_POINT('',(9.424777960769,3.));
#341 = CARTESIAN_POINT('',(9.329578183388,3.));
#342 = CARTESIAN_POINT('',(9.139178628625,3.));
#343 = CARTESIAN_POINT('',(8.85357929648,3.));
#344 = CARTESIAN_POINT('',(8.567979964336,3.));
#345 = CARTESIAN_POINT('',(8.282380632191,3.));
#346 = CARTESIAN_POINT('',(7.996781300047,3.));
#347 = CARTESIAN_POINT('',(7.711181967902,3.));
#348 = CARTESIAN_POINT('',(7.425582635758,3.));
#349 = CARTESIAN_POINT('',(7.139983303613,3.));
#350 = CARTESIAN_POINT('',(6.854383971469,3.));
#351 = CARTESIAN_POINT('',(6.568784639324,3.));
#352 = CARTESIAN_POINT('',(6.28318530718,3.));
#353 = CARTESIAN_POINT('',(5.997585975035,3.));
#354 = CARTESIAN_POINT('',(5.711986642891,3.));
#355 = CARTESIAN_POINT('',(5.426387310746,3.));
#356 = CARTESIAN_POINT('',(5.140787978601,3.));
#357 = CARTESIAN_POINT('',(4.855188646457,3.));
#358 = CARTESIAN_POINT('',(4.569589314312,3.));
#359 = CARTESIAN_POINT('',(4.283989982168,3.));
#360 = CARTESIAN_POINT('',(3.998390650023,3.));
#361 = CARTESIAN_POINT('',(3.712791317879,3.));
#362 = CARTESIAN_POINT('',(3.427191985734,3.));
#363 = CARTESIAN_POINT('',(3.236792430971,3.));
#364 = CARTESIAN_POINT('',(3.14159265359,3.));
#365 = ( GEOMETRIC_REPRESENTATION_CONTEXT(2) 
PARAMETRIC_REPRESENTATION_CONTEXT() REPRESENTATION_CONTEXT('2D SPACE',''
  ) );
#366 = PCURVE('',#367,#372);
#367 = PLANE('',#368);
#368 = AXIS2_PLACEMENT_3D('',#369,#370,#371);
#369 = CARTESIAN_POINT('',(0.E+000,-7.549516567451E-015,-28.));
#370 = DIRECTION('',(0.E+000,-2.22044604925E-016,-1.));
#371 = DIRECTION('',(1.,0.E+000,0.E+000));
#372 = DEFINITIONAL_REPRESENTATION('',(#373),#377);
#373 = CIRCLE('',#374,10.);
#374 = AXIS2_PLACEMENT_2D('',#375,#376);
#375 = CARTESIAN_POINT('',(0.E+000,-7.549516567451E-015));
#376 = DIRECTION('',(1.,0.E+000));
#377 = ( GEOMETRIC_REPRESENTATION_CONTEXT(2) 
PARAMETRIC_REPRESENTATION_CONTEXT() REPRESENTATION_CONTEXT('2D SPACE',''
  ) );
#378 = ORIENTED_EDGE('',*,*,#379,.T.);
#379 = EDGE_CURVE('',#329,#307,#380,.T.);
#380 = SURFACE_CURVE('',#381,(#386,#415),.PCURVE_S1.);
#381 = CIRCLE('',#382,10.);
#382 = AXIS2_PLACEMENT_3D('',#383,#384,#385);
#383 = CARTESIAN_POINT('',(0.E+000,0.E+000,-28.));
#384 = DIRECTION('',(0.E+000,-2.22044604925E-016,-1.));
#385 = DIRECTION('',(1.,0.E+000,0.E+000));
#386 = PCURVE('',#279,#387);
#387 = DEFINITIONAL_REPRESENTATION('',(#388),#414);
#388 = B_SPLINE_CURVE_WITH_KNOTS('',3,(#389,#390,#391,#392,#393,#394,
    #395,#396,#397,#398,#399,#400,#401,#402,#403,#404,#405,#406,#407,
    #408,#409,#410,#411,#412,#413),.UNSPECIFIED.,.F.,.F.,(4,1,1,1,1,1,1,
    1,1,1,1,1,1,1,1,1,1,1,1,1,1,1,4),(3.14159265359,3.427191985734,
    3.712791317879,3.998390650023,4.283989982168,4.569589314312,
    4.855188646457,5.140787978601,5.426387310746,5.711986642891,
    5.997585975035,6.28318530718,6.568784639324,6.854383971469,
    7.139983303613,7.425582635758,7.711181967902,7.996781300047,
    8.282380632191,8.567979964336,8.85357929648,9.139178628625,
    9.424777960769),.QUASI_UNIFORM_KNOTS.);
#389 = CARTESIAN_POINT('',(3.14159265359,3.));
#390 = CARTESIAN_POINT('',(3.046392876208,3.));
#391 = CARTESIAN_POINT('',(2.855993321445,3.));
#392 = CARTESIAN_POINT('',(2.570393989301,3.));
#393 = CARTESIAN_POINT('',(2.284794657156,3.));
#394 = CARTESIAN_POINT('',(1.999195325012,3.));
#395 = CARTESIAN_POINT('',(1.713595992867,3.));
#396 = CARTESIAN_POINT('',(1.427996660723,3.));
#397 = CARTESIAN_POINT('',(1.142397328578,3.));
#398 = CARTESIAN_POINT('',(0.856797996434,3.));
#399 = CARTESIAN_POINT('',(0.571198664289,3.));
#400 = CARTESIAN_POINT('',(0.285599332145,3.));
#401 = CARTESIAN_POINT('',(7.105427357601E-015,3.));
#402 = CARTESIAN_POINT('',(-0.285599332145,3.));
#403 = CARTESIAN_POINT('',(-0.571198664289,3.));
#404 = CARTESIAN_POINT('',(-0.856797996434,3.));
#405 = CARTESIAN_POINT('',(-1.142397328578,3.));
#406 = CARTESIAN_POINT('',(-1.427996660723,3.));
#407 = CARTESIAN_POINT('',(-1.713595992867,3.));
#408 = CARTESIAN_POINT('',(-1.999195325012,3.));
#409 = CARTESIAN_POINT('',(-2.284794657156,3.));
#410 = CARTESIAN_POINT('',(-2.570393989301,3.));
#411 = CARTESIAN_POINT('',(-2.855993321445,3.));
#412 = CARTESIAN_POINT('',(-3.046392876208,3.));
#413 = CARTESIAN_POINT('',(-3.14159265359,3.));
#414 = ( GEOMETRIC_REPRESENTATION_CONTEXT(2) 
PARAMETRIC_REPRESENTATION_CONTEXT() REPRESENTATION_CONTEXT('2D SPACE',''
  ) );
#415 = PCURVE('',#367,#416);
#416 = DEFINITIONAL_REPRESENTATION('',(#417),#421);
#417 = CIRCLE('',#418,10.);
#418 = AXIS2_PLACEMENT_2D('',#419,#420);
#419 = CARTESIAN_POINT('',(0.E+000,-7.549516567451E-015));
#420 = DIRECTION('',(1.,0.E+000));
#421 = ( GEOMETRIC_REPRESENTATION_CONTEXT(2) 
PARAMETRIC_REPRESENTATION_CONTEXT() REPRESENTATION_CONTEXT('2D SPACE',''
  ) );
#422 = ORIENTED_EDGE('',*,*,#306,.F.);
#423 = ADVANCED_FACE('',(#424,#427),#290,.T.);
#424 = FACE_BOUND('',#425,.T.);
#425 = EDGE_LOOP('',(#426));
#426 = ORIENTED_EDGE('',*,*,#269,.T.);
#427 = FACE_BOUND('',#428,.T.);
#428 = EDGE_LOOP('',(#429));
#429 = ORIENTED_EDGE('',*,*,#430,.T.);
#430 = EDGE_CURVE('',#431,#431,#433,.T.);
#431 = VERTEX_POINT('',#432);
#432 = CARTESIAN_POINT('',(11.,0.E+000,-33.));
#433 = SURFACE_CURVE('',#434,(#439,#446),.PCURVE_S1.);
#434 = CIRCLE('',#435,11.);
#435 = AXIS2_PLACEMENT_3D('',#436,#437,#438);
#436 = CARTESIAN_POINT('',(0.E+000,0.E+000,-33.));
#437 = DIRECTION('',(0.E+000,0.E+000,-1.));
#438 = DIRECTION('',(1.,0.E+000,0.E+000));
#439 = PCURVE('',#290,#440);
#440 = DEFINITIONAL_REPRESENTATION('',(#441),#445);
#441 = CIRCLE('',#442,11.);
#442 = AXIS2_PLACEMENT_2D('',#443,#444);
#443 = CARTESIAN_POINT('',(0.E+000,0.E+000));
#444 = DIRECTION('',(-1.,0.E+000));
#445 = ( GEOMETRIC_REPRESENTATION_CONTEXT(2) 
PARAMETRIC_REPRESENTATION_CONTEXT() REPRESENTATION_CONTEXT('2D SPACE',''
  ) );
#446 = PCURVE('',#154,#447);
#447 = DEFINITIONAL_REPRESENTATION('',(#448),#451);
#448 = B_SPLINE_CURVE_WITH_KNOTS('',1,(#449,#450),.UNSPECIFIED.,.F.,.F.,
  (2,2),(0.E+000,6.28318530718),.PIECEWISE_BEZIER_KNOTS.);
#449 = CARTESIAN_POINT('',(-8.881784197001E-016,30.));
#450 = CARTESIAN_POINT('',(6.28318530718,30.));
#451 = ( GEOMETRIC_REPRESENTATION_CONTEXT(2) 
PARAMETRIC_REPRESENTATION_CONTEXT() REPRESENTATION_CONTEXT('2D SPACE',''
  ) );
#452 = ADVANCED_FACE('',(#453),#154,.T.);
#453 = FACE_BOUND('',#454,.T.);
#454 = EDGE_LOOP('',(#455,#456,#476,#477));
#455 = ORIENTED_EDGE('',*,*,#110,.F.);
#456 = ORIENTED_EDGE('',*,*,#457,.T.);
#457 = EDGE_CURVE('',#111,#431,#458,.T.);
#458 = SEAM_CURVE('',#459,(#462,#469),.PCURVE_S1.);
#459 = B_SPLINE_CURVE_WITH_KNOTS('',1,(#460,#461),.UNSPECIFIED.,.F.,.F.,
  (2,2),(-28.,30.),.PIECEWISE_BEZIER_KNOTS.);
#460 = CARTESIAN_POINT('',(11.,-7.394085344004E-014,25.));
#461 = CARTESIAN_POINT('',(11.,-8.681944052569E-014,-33.));
#462 = PCURVE('',#154,#463);
#463 = DEFINITIONAL_REPRESENTATION('',(#464),#468);
#464 = LINE('',#465,#466);
#465 = CARTESIAN_POINT('',(6.28318530718,0.E+000));
#466 = VECTOR('',#467,1.);
#467 = DIRECTION('',(0.E+000,1.));
#468 = ( GEOMETRIC_REPRESENTATION_CONTEXT(2) 
PARAMETRIC_REPRESENTATION_CONTEXT() REPRESENTATION_CONTEXT('2D SPACE',''
  ) );
#469 = PCURVE('',#154,#470);
#470 = DEFINITIONAL_REPRESENTATION('',(#471),#475);
#471 = LINE('',#472,#473);
#472 = CARTESIAN_POINT('',(7.105427357601E-015,0.E+000));
#473 = VECTOR('',#474,1.);
#474 = DIRECTION('',(0.E+000,1.));
#475 = ( GEOMETRIC_REPRESENTATION_CONTEXT(2) 
PARAMETRIC_REPRESENTATION_CONTEXT() REPRESENTATION_CONTEXT('2D SPACE',''
  ) );
#476 = ORIENTED_EDGE('',*,*,#430,.F.);
#477 = ORIENTED_EDGE('',*,*,#457,.F.);
#478 = ADVANCED_FACE('',(#479),#94,.T.);
#479 = FACE_BOUND('',#480,.T.);
#480 = EDGE_LOOP('',(#481));
#481 = ORIENTED_EDGE('',*,*,#80,.T.);
#482 = ADVANCED_FACE('',(#483),#367,.T.);
#483 = FACE_BOUND('',#484,.T.);
#484 = EDGE_LOOP('',(#485,#486));
#485 = ORIENTED_EDGE('',*,*,#379,.T.);
#486 = ORIENTED_EDGE('',*,*,#328,.T.);
#487 = ( GEOMETRIC_REPRESENTATION_CONTEXT(3) 
GLOBAL_UNCERTAINTY_ASSIGNED_CONTEXT((#491)) GLOBAL_UNIT_ASSIGNED_CONTEXT
((#488,#489,#490)) REPRESENTATION_CONTEXT('Context #1',
  '3D Context with UNIT and UNCERTAINTY') );
#488 = ( LENGTH_UNIT() NAMED_UNIT(*) SI_UNIT(.MILLI.,.METRE.) );
#489 = ( NAMED_UNIT(*) PLANE_ANGLE_UNIT() SI_UNIT($,.RADIAN.) );
#490 = ( NAMED_UNIT(*) SI_UNIT($,.STERADIAN.) SOLID_ANGLE_UNIT() );
#491 = UNCERTAINTY_MEASURE_WITH_UNIT(LENGTH_MEASURE(5.E-006),#488,
  'distance_accuracy_value','confusion accuracy');
#492 = PRODUCT_RELATED_PRODUCT_CATEGORY('part',$,(#7));
ENDSEC;
END-ISO-10303-21;
