ISO-10303-21;
HEADER;
/* Generated by software containing ST-Developer
 * from STEP Tools, Inc. (www.steptools.com) 
 */

FILE_DESCRIPTION(
/* description */ ('DISO T xxx'),
/* implementation_level */ '2;1');

FILE_NAME(
/* name */ 
'G:\\Entwicklung\\Zeichnungen\\3D\\\X\DCbergabe 3D-Daten\\SH-U1-12-150
-V.stp',
/* time_stamp */ '2015-10-13T08:43:43+02:00',
/* author */ ('lck'),
/* organization */ ('di-soric GmbH & Co. KG'),
/* preprocessor_version */ 'ST-DEVELOPER v16.1',
/* originating_system */ 'Autodesk Inventor 2016',
/* authorisation */ '');

FILE_SCHEMA (('AUTOMOTIVE_DESIGN { 1 0 10303 214 3 1 1 }'));
ENDSEC;

DATA;
#10=MECHANICAL_DESIGN_GEOMETRIC_PRESENTATION_REPRESENTATION('',(#13),#551);
#11=SHAPE_REPRESENTATION_RELATIONSHIP('SRR','None',#560,#12);
#12=ADVANCED_BREP_SHAPE_REPRESENTATION('',(#14),#550);
#13=STYLED_ITEM('',(#569),#14);
#14=MANIFOLD_SOLID_BREP('Volumenk\X\F6rper7',#314);
#15=FACE_BOUND('',#64,.T.);
#16=FACE_BOUND('',#66,.T.);
#17=FACE_BOUND('',#68,.T.);
#18=FACE_BOUND('',#70,.T.);
#19=FACE_BOUND('',#72,.T.);
#20=FACE_BOUND('',#74,.T.);
#21=FACE_BOUND('',#76,.T.);
#22=FACE_BOUND('',#77,.T.);
#23=FACE_BOUND('',#78,.T.);
#24=FACE_BOUND('',#79,.T.);
#25=FACE_BOUND('',#80,.T.);
#26=FACE_BOUND('',#81,.T.);
#27=FACE_BOUND('',#84,.T.);
#28=FACE_BOUND('',#85,.T.);
#29=FACE_BOUND('',#86,.T.);
#30=FACE_BOUND('',#87,.T.);
#31=FACE_BOUND('',#88,.T.);
#32=FACE_BOUND('',#89,.T.);
#33=FACE_BOUND('',#92,.T.);
#34=PLANE('',#318);
#35=PLANE('',#321);
#36=PLANE('',#341);
#37=PLANE('',#342);
#38=PLANE('',#343);
#39=PLANE('',#344);
#40=PLANE('',#350);
#41=PLANE('',#351);
#42=FACE_OUTER_BOUND('',#59,.T.);
#43=FACE_OUTER_BOUND('',#60,.T.);
#44=FACE_OUTER_BOUND('',#61,.T.);
#45=FACE_OUTER_BOUND('',#62,.T.);
#46=FACE_OUTER_BOUND('',#63,.T.);
#47=FACE_OUTER_BOUND('',#65,.T.);
#48=FACE_OUTER_BOUND('',#67,.T.);
#49=FACE_OUTER_BOUND('',#69,.T.);
#50=FACE_OUTER_BOUND('',#71,.T.);
#51=FACE_OUTER_BOUND('',#73,.T.);
#52=FACE_OUTER_BOUND('',#75,.T.);
#53=FACE_OUTER_BOUND('',#82,.T.);
#54=FACE_OUTER_BOUND('',#83,.T.);
#55=FACE_OUTER_BOUND('',#90,.T.);
#56=FACE_OUTER_BOUND('',#91,.T.);
#57=FACE_OUTER_BOUND('',#93,.T.);
#58=FACE_OUTER_BOUND('',#94,.T.);
#59=EDGE_LOOP('',(#214,#215,#216,#217));
#60=EDGE_LOOP('',(#218,#219,#220,#221));
#61=EDGE_LOOP('',(#222,#223,#224,#225));
#62=EDGE_LOOP('',(#226,#227,#228));
#63=EDGE_LOOP('',(#229));
#64=EDGE_LOOP('',(#230));
#65=EDGE_LOOP('',(#231));
#66=EDGE_LOOP('',(#232));
#67=EDGE_LOOP('',(#233));
#68=EDGE_LOOP('',(#234));
#69=EDGE_LOOP('',(#235));
#70=EDGE_LOOP('',(#236));
#71=EDGE_LOOP('',(#237));
#72=EDGE_LOOP('',(#238));
#73=EDGE_LOOP('',(#239));
#74=EDGE_LOOP('',(#240));
#75=EDGE_LOOP('',(#241,#242,#243,#244,#245));
#76=EDGE_LOOP('',(#246));
#77=EDGE_LOOP('',(#247));
#78=EDGE_LOOP('',(#248));
#79=EDGE_LOOP('',(#249));
#80=EDGE_LOOP('',(#250));
#81=EDGE_LOOP('',(#251));
#82=EDGE_LOOP('',(#252,#253,#254,#255));
#83=EDGE_LOOP('',(#256,#257,#258,#259,#260));
#84=EDGE_LOOP('',(#261));
#85=EDGE_LOOP('',(#262));
#86=EDGE_LOOP('',(#263));
#87=EDGE_LOOP('',(#264));
#88=EDGE_LOOP('',(#265));
#89=EDGE_LOOP('',(#266));
#90=EDGE_LOOP('',(#267,#268,#269));
#91=EDGE_LOOP('',(#270));
#92=EDGE_LOOP('',(#271,#272,#273,#274,#275,#276,#277,#278,#279,#280));
#93=EDGE_LOOP('',(#281));
#94=EDGE_LOOP('',(#282,#283,#284,#285,#286,#287));
#95=B_SPLINE_CURVE_WITH_KNOTS('',3,(#450,#451,#452,#453,#454,#455,#456,
#457,#458,#459,#460,#461),.UNSPECIFIED.,.F.,.F.,(4,2,2,2,2,4),(1.57182125807144,
1.73094441802351,1.89006757797558,2.04688316731084,2.20369875664609,2.33523843017276),
 .UNSPECIFIED.);
#96=B_SPLINE_CURVE_WITH_KNOTS('',3,(#472,#473,#474,#475,#476,#477,#478,
#479,#480,#481,#482,#483),.UNSPECIFIED.,.F.,.F.,(4,2,2,2,2,4),(3.95204660211299,
4.08358627563966,4.24040186497491,4.39721745431017,4.55634061426224,4.71546377421431),
 .UNSPECIFIED.);
#97=LINE('',#448,#113);
#98=LINE('',#462,#114);
#99=LINE('',#465,#115);
#100=LINE('',#467,#116);
#101=LINE('',#468,#117);
#102=LINE('',#485,#118);
#103=LINE('',#488,#119);
#104=LINE('',#491,#120);
#105=LINE('',#525,#121);
#106=LINE('',#527,#122);
#107=LINE('',#528,#123);
#108=LINE('',#531,#124);
#109=LINE('',#532,#125);
#110=LINE('',#535,#126);
#111=LINE('',#537,#127);
#112=LINE('',#538,#128);
#113=VECTOR('',#358,1.51098792654702);
#114=VECTOR('',#359,2.25412895232632);
#115=VECTOR('',#362,50.);
#116=VECTOR('',#363,1.51098792654702);
#117=VECTOR('',#364,50.);
#118=VECTOR('',#367,1.51098792654702);
#119=VECTOR('',#370,2.25412895232632);
#120=VECTOR('',#373,3.17339717240448);
#121=VECTOR('',#414,50.);
#122=VECTOR('',#415,8.17339717240448);
#123=VECTOR('',#416,55.);
#124=VECTOR('',#419,50.);
#125=VECTOR('',#420,1.51098792654702);
#126=VECTOR('',#423,3.17339717240448);
#127=VECTOR('',#424,55.);
#128=VECTOR('',#425,8.17339717240448);
#129=CIRCLE('',#317,5.);
#130=CIRCLE('',#320,5.);
#131=CIRCLE('',#322,6.);
#132=CIRCLE('',#324,1.65);
#133=CIRCLE('',#325,1.65);
#134=CIRCLE('',#327,1.621);
#135=CIRCLE('',#328,1.621);
#136=CIRCLE('',#330,1.621);
#137=CIRCLE('',#331,1.621);
#138=CIRCLE('',#333,1.621);
#139=CIRCLE('',#334,1.621);
#140=CIRCLE('',#336,2.25);
#141=CIRCLE('',#337,2.25);
#142=CIRCLE('',#339,2.25);
#143=CIRCLE('',#340,2.25);
#144=CIRCLE('',#345,6.);
#145=CIRCLE('',#347,6.);
#146=CIRCLE('',#348,6.);
#147=CIRCLE('',#349,6.);
#148=VERTEX_POINT('',#444);
#149=VERTEX_POINT('',#445);
#150=VERTEX_POINT('',#447);
#151=VERTEX_POINT('',#449);
#152=VERTEX_POINT('',#464);
#153=VERTEX_POINT('',#466);
#154=VERTEX_POINT('',#470);
#155=VERTEX_POINT('',#471);
#156=VERTEX_POINT('',#484);
#157=VERTEX_POINT('',#486);
#158=VERTEX_POINT('',#490);
#159=VERTEX_POINT('',#494);
#160=VERTEX_POINT('',#496);
#161=VERTEX_POINT('',#499);
#162=VERTEX_POINT('',#501);
#163=VERTEX_POINT('',#504);
#164=VERTEX_POINT('',#506);
#165=VERTEX_POINT('',#509);
#166=VERTEX_POINT('',#511);
#167=VERTEX_POINT('',#514);
#168=VERTEX_POINT('',#516);
#169=VERTEX_POINT('',#519);
#170=VERTEX_POINT('',#521);
#171=VERTEX_POINT('',#524);
#172=VERTEX_POINT('',#526);
#173=VERTEX_POINT('',#530);
#174=VERTEX_POINT('',#534);
#175=VERTEX_POINT('',#536);
#176=VERTEX_POINT('',#542);
#177=EDGE_CURVE('',#148,#149,#129,.T.);
#178=EDGE_CURVE('',#148,#150,#97,.T.);
#179=EDGE_CURVE('',#151,#150,#95,.F.);
#180=EDGE_CURVE('',#151,#149,#98,.T.);
#181=EDGE_CURVE('',#152,#148,#99,.T.);
#182=EDGE_CURVE('',#153,#152,#100,.T.);
#183=EDGE_CURVE('',#150,#153,#101,.T.);
#184=EDGE_CURVE('',#154,#155,#96,.F.);
#185=EDGE_CURVE('',#154,#156,#102,.T.);
#186=EDGE_CURVE('',#157,#156,#130,.T.);
#187=EDGE_CURVE('',#157,#155,#103,.T.);
#188=EDGE_CURVE('',#158,#157,#104,.T.);
#189=EDGE_CURVE('',#155,#158,#131,.T.);
#190=EDGE_CURVE('',#159,#159,#132,.T.);
#191=EDGE_CURVE('',#160,#160,#133,.T.);
#192=EDGE_CURVE('',#161,#161,#134,.T.);
#193=EDGE_CURVE('',#162,#162,#135,.T.);
#194=EDGE_CURVE('',#163,#163,#136,.T.);
#195=EDGE_CURVE('',#164,#164,#137,.T.);
#196=EDGE_CURVE('',#165,#165,#138,.T.);
#197=EDGE_CURVE('',#166,#166,#139,.T.);
#198=EDGE_CURVE('',#167,#167,#140,.T.);
#199=EDGE_CURVE('',#168,#168,#141,.T.);
#200=EDGE_CURVE('',#169,#169,#142,.T.);
#201=EDGE_CURVE('',#170,#170,#143,.T.);
#202=EDGE_CURVE('',#171,#156,#105,.T.);
#203=EDGE_CURVE('',#172,#171,#106,.T.);
#204=EDGE_CURVE('',#158,#172,#107,.T.);
#205=EDGE_CURVE('',#173,#154,#108,.T.);
#206=EDGE_CURVE('',#171,#173,#109,.T.);
#207=EDGE_CURVE('',#149,#174,#110,.T.);
#208=EDGE_CURVE('',#175,#174,#111,.T.);
#209=EDGE_CURVE('',#152,#175,#112,.T.);
#210=EDGE_CURVE('',#174,#151,#144,.T.);
#211=EDGE_CURVE('',#176,#176,#145,.T.);
#212=EDGE_CURVE('',#175,#172,#146,.T.);
#213=EDGE_CURVE('',#173,#153,#147,.T.);
#214=ORIENTED_EDGE('',*,*,#177,.F.);
#215=ORIENTED_EDGE('',*,*,#178,.T.);
#216=ORIENTED_EDGE('',*,*,#179,.F.);
#217=ORIENTED_EDGE('',*,*,#180,.T.);
#218=ORIENTED_EDGE('',*,*,#178,.F.);
#219=ORIENTED_EDGE('',*,*,#181,.F.);
#220=ORIENTED_EDGE('',*,*,#182,.F.);
#221=ORIENTED_EDGE('',*,*,#183,.F.);
#222=ORIENTED_EDGE('',*,*,#184,.F.);
#223=ORIENTED_EDGE('',*,*,#185,.T.);
#224=ORIENTED_EDGE('',*,*,#186,.F.);
#225=ORIENTED_EDGE('',*,*,#187,.T.);
#226=ORIENTED_EDGE('',*,*,#187,.F.);
#227=ORIENTED_EDGE('',*,*,#188,.F.);
#228=ORIENTED_EDGE('',*,*,#189,.F.);
#229=ORIENTED_EDGE('',*,*,#190,.F.);
#230=ORIENTED_EDGE('',*,*,#191,.F.);
#231=ORIENTED_EDGE('',*,*,#192,.F.);
#232=ORIENTED_EDGE('',*,*,#193,.F.);
#233=ORIENTED_EDGE('',*,*,#194,.F.);
#234=ORIENTED_EDGE('',*,*,#195,.F.);
#235=ORIENTED_EDGE('',*,*,#196,.F.);
#236=ORIENTED_EDGE('',*,*,#197,.F.);
#237=ORIENTED_EDGE('',*,*,#198,.F.);
#238=ORIENTED_EDGE('',*,*,#199,.F.);
#239=ORIENTED_EDGE('',*,*,#200,.F.);
#240=ORIENTED_EDGE('',*,*,#201,.F.);
#241=ORIENTED_EDGE('',*,*,#186,.T.);
#242=ORIENTED_EDGE('',*,*,#202,.F.);
#243=ORIENTED_EDGE('',*,*,#203,.F.);
#244=ORIENTED_EDGE('',*,*,#204,.F.);
#245=ORIENTED_EDGE('',*,*,#188,.T.);
#246=ORIENTED_EDGE('',*,*,#191,.T.);
#247=ORIENTED_EDGE('',*,*,#193,.T.);
#248=ORIENTED_EDGE('',*,*,#195,.T.);
#249=ORIENTED_EDGE('',*,*,#197,.T.);
#250=ORIENTED_EDGE('',*,*,#199,.T.);
#251=ORIENTED_EDGE('',*,*,#201,.T.);
#252=ORIENTED_EDGE('',*,*,#185,.F.);
#253=ORIENTED_EDGE('',*,*,#205,.F.);
#254=ORIENTED_EDGE('',*,*,#206,.F.);
#255=ORIENTED_EDGE('',*,*,#202,.T.);
#256=ORIENTED_EDGE('',*,*,#177,.T.);
#257=ORIENTED_EDGE('',*,*,#207,.T.);
#258=ORIENTED_EDGE('',*,*,#208,.F.);
#259=ORIENTED_EDGE('',*,*,#209,.F.);
#260=ORIENTED_EDGE('',*,*,#181,.T.);
#261=ORIENTED_EDGE('',*,*,#190,.T.);
#262=ORIENTED_EDGE('',*,*,#192,.T.);
#263=ORIENTED_EDGE('',*,*,#194,.T.);
#264=ORIENTED_EDGE('',*,*,#196,.T.);
#265=ORIENTED_EDGE('',*,*,#198,.T.);
#266=ORIENTED_EDGE('',*,*,#200,.T.);
#267=ORIENTED_EDGE('',*,*,#180,.F.);
#268=ORIENTED_EDGE('',*,*,#210,.F.);
#269=ORIENTED_EDGE('',*,*,#207,.F.);
#270=ORIENTED_EDGE('',*,*,#211,.F.);
#271=ORIENTED_EDGE('',*,*,#205,.T.);
#272=ORIENTED_EDGE('',*,*,#184,.T.);
#273=ORIENTED_EDGE('',*,*,#189,.T.);
#274=ORIENTED_EDGE('',*,*,#204,.T.);
#275=ORIENTED_EDGE('',*,*,#212,.F.);
#276=ORIENTED_EDGE('',*,*,#208,.T.);
#277=ORIENTED_EDGE('',*,*,#210,.T.);
#278=ORIENTED_EDGE('',*,*,#179,.T.);
#279=ORIENTED_EDGE('',*,*,#183,.T.);
#280=ORIENTED_EDGE('',*,*,#213,.F.);
#281=ORIENTED_EDGE('',*,*,#211,.T.);
#282=ORIENTED_EDGE('',*,*,#206,.T.);
#283=ORIENTED_EDGE('',*,*,#213,.T.);
#284=ORIENTED_EDGE('',*,*,#182,.T.);
#285=ORIENTED_EDGE('',*,*,#209,.T.);
#286=ORIENTED_EDGE('',*,*,#212,.T.);
#287=ORIENTED_EDGE('',*,*,#203,.T.);
#288=CYLINDRICAL_SURFACE('',#316,5.);
#289=CYLINDRICAL_SURFACE('',#319,5.);
#290=CYLINDRICAL_SURFACE('',#323,1.65);
#291=CYLINDRICAL_SURFACE('',#326,1.621);
#292=CYLINDRICAL_SURFACE('',#329,1.621);
#293=CYLINDRICAL_SURFACE('',#332,1.621);
#294=CYLINDRICAL_SURFACE('',#335,2.25);
#295=CYLINDRICAL_SURFACE('',#338,2.25);
#296=CYLINDRICAL_SURFACE('',#346,6.);
#297=ADVANCED_FACE('',(#42),#288,.F.);
#298=ADVANCED_FACE('',(#43),#34,.F.);
#299=ADVANCED_FACE('',(#44),#289,.F.);
#300=ADVANCED_FACE('',(#45),#35,.T.);
#301=ADVANCED_FACE('',(#46,#15),#290,.F.);
#302=ADVANCED_FACE('',(#47,#16),#291,.F.);
#303=ADVANCED_FACE('',(#48,#17),#292,.F.);
#304=ADVANCED_FACE('',(#49,#18),#293,.F.);
#305=ADVANCED_FACE('',(#50,#19),#294,.F.);
#306=ADVANCED_FACE('',(#51,#20),#295,.F.);
#307=ADVANCED_FACE('',(#52,#21,#22,#23,#24,#25,#26),#36,.F.);
#308=ADVANCED_FACE('',(#53),#37,.F.);
#309=ADVANCED_FACE('',(#54,#27,#28,#29,#30,#31,#32),#38,.F.);
#310=ADVANCED_FACE('',(#55),#39,.T.);
#311=ADVANCED_FACE('',(#56,#33),#296,.T.);
#312=ADVANCED_FACE('',(#57),#40,.F.);
#313=ADVANCED_FACE('',(#58),#41,.T.);
#314=CLOSED_SHELL('',(#297,#298,#299,#300,#301,#302,#303,#304,#305,#306,
#307,#308,#309,#310,#311,#312,#313));
#315=AXIS2_PLACEMENT_3D('placement',#442,#352,#353);
#316=AXIS2_PLACEMENT_3D('',#443,#354,#355);
#317=AXIS2_PLACEMENT_3D('',#446,#356,#357);
#318=AXIS2_PLACEMENT_3D('',#463,#360,#361);
#319=AXIS2_PLACEMENT_3D('',#469,#365,#366);
#320=AXIS2_PLACEMENT_3D('',#487,#368,#369);
#321=AXIS2_PLACEMENT_3D('',#489,#371,#372);
#322=AXIS2_PLACEMENT_3D('',#492,#374,#375);
#323=AXIS2_PLACEMENT_3D('',#493,#376,#377);
#324=AXIS2_PLACEMENT_3D('',#495,#378,#379);
#325=AXIS2_PLACEMENT_3D('',#497,#380,#381);
#326=AXIS2_PLACEMENT_3D('',#498,#382,#383);
#327=AXIS2_PLACEMENT_3D('',#500,#384,#385);
#328=AXIS2_PLACEMENT_3D('',#502,#386,#387);
#329=AXIS2_PLACEMENT_3D('',#503,#388,#389);
#330=AXIS2_PLACEMENT_3D('',#505,#390,#391);
#331=AXIS2_PLACEMENT_3D('',#507,#392,#393);
#332=AXIS2_PLACEMENT_3D('',#508,#394,#395);
#333=AXIS2_PLACEMENT_3D('',#510,#396,#397);
#334=AXIS2_PLACEMENT_3D('',#512,#398,#399);
#335=AXIS2_PLACEMENT_3D('',#513,#400,#401);
#336=AXIS2_PLACEMENT_3D('',#515,#402,#403);
#337=AXIS2_PLACEMENT_3D('',#517,#404,#405);
#338=AXIS2_PLACEMENT_3D('',#518,#406,#407);
#339=AXIS2_PLACEMENT_3D('',#520,#408,#409);
#340=AXIS2_PLACEMENT_3D('',#522,#410,#411);
#341=AXIS2_PLACEMENT_3D('',#523,#412,#413);
#342=AXIS2_PLACEMENT_3D('',#529,#417,#418);
#343=AXIS2_PLACEMENT_3D('',#533,#421,#422);
#344=AXIS2_PLACEMENT_3D('',#539,#426,#427);
#345=AXIS2_PLACEMENT_3D('',#540,#428,#429);
#346=AXIS2_PLACEMENT_3D('',#541,#430,#431);
#347=AXIS2_PLACEMENT_3D('',#543,#432,#433);
#348=AXIS2_PLACEMENT_3D('',#544,#434,#435);
#349=AXIS2_PLACEMENT_3D('',#545,#436,#437);
#350=AXIS2_PLACEMENT_3D('',#546,#438,#439);
#351=AXIS2_PLACEMENT_3D('',#547,#440,#441);
#352=DIRECTION('axis',(0.,0.,1.));
#353=DIRECTION('refdir',(1.,0.,0.));
#354=DIRECTION('center_axis',(-7.34766310914403E-16,1.,0.));
#355=DIRECTION('ref_axis',(-0.707106781186547,-4.71027737605132E-16,-0.707106781186547));
#356=DIRECTION('center_axis',(3.39584324977366E-16,-1.,0.));
#357=DIRECTION('ref_axis',(-0.707106781186547,-4.71027737605132E-16,-0.707106781186547));
#358=DIRECTION('',(7.34766310914403E-16,-1.,0.));
#359=DIRECTION('',(-7.34766310914403E-16,1.,0.));
#360=DIRECTION('center_axis',(-1.,-7.34766310914403E-16,0.));
#361=DIRECTION('ref_axis',(-7.54951656745106E-16,1.,0.));
#362=DIRECTION('',(0.,0.,-1.));
#363=DIRECTION('',(-7.34766310914403E-16,1.,0.));
#364=DIRECTION('',(0.,0.,1.));
#365=DIRECTION('center_axis',(-3.67383155457201E-16,1.,0.));
#366=DIRECTION('ref_axis',(-0.707106781186547,-1.57009245868377E-16,-0.707106781186547));
#367=DIRECTION('',(3.67383155457201E-16,-1.,0.));
#368=DIRECTION('center_axis',(-3.39584324977366E-16,1.,0.));
#369=DIRECTION('ref_axis',(-0.707106781186547,-1.57009245868377E-16,-0.707106781186547));
#370=DIRECTION('',(-3.67383155457201E-16,1.,0.));
#371=DIRECTION('center_axis',(0.,0.,1.));
#372=DIRECTION('ref_axis',(1.,0.,0.));
#373=DIRECTION('',(-1.,-3.39584324977366E-16,0.));
#374=DIRECTION('center_axis',(0.,0.,-1.));
#375=DIRECTION('ref_axis',(-1.,0.,0.));
#376=DIRECTION('center_axis',(-3.39584324977366E-16,1.,0.));
#377=DIRECTION('ref_axis',(1.,3.39584324977366E-16,0.));
#378=DIRECTION('center_axis',(-3.39584324977366E-16,1.,0.));
#379=DIRECTION('ref_axis',(1.,3.39584324977366E-16,0.));
#380=DIRECTION('center_axis',(3.39584324977366E-16,-1.,0.));
#381=DIRECTION('ref_axis',(1.,3.39584324977366E-16,0.));
#382=DIRECTION('center_axis',(-3.39584324977366E-16,1.,0.));
#383=DIRECTION('ref_axis',(1.,3.39584324977366E-16,0.));
#384=DIRECTION('center_axis',(-3.39584324977366E-16,1.,0.));
#385=DIRECTION('ref_axis',(1.,3.39584324977366E-16,0.));
#386=DIRECTION('center_axis',(3.39584324977366E-16,-1.,0.));
#387=DIRECTION('ref_axis',(1.,3.39584324977366E-16,0.));
#388=DIRECTION('center_axis',(-3.39584324977366E-16,1.,0.));
#389=DIRECTION('ref_axis',(1.,3.39584324977366E-16,0.));
#390=DIRECTION('center_axis',(-3.39584324977366E-16,1.,0.));
#391=DIRECTION('ref_axis',(1.,3.39584324977366E-16,0.));
#392=DIRECTION('center_axis',(3.39584324977366E-16,-1.,0.));
#393=DIRECTION('ref_axis',(1.,3.39584324977366E-16,0.));
#394=DIRECTION('center_axis',(-3.39584324977366E-16,1.,0.));
#395=DIRECTION('ref_axis',(1.,3.39584324977366E-16,0.));
#396=DIRECTION('center_axis',(-3.39584324977366E-16,1.,0.));
#397=DIRECTION('ref_axis',(1.,3.39584324977366E-16,0.));
#398=DIRECTION('center_axis',(3.39584324977366E-16,-1.,0.));
#399=DIRECTION('ref_axis',(1.,3.39584324977366E-16,0.));
#400=DIRECTION('center_axis',(-3.39584324977366E-16,1.,0.));
#401=DIRECTION('ref_axis',(1.,3.39584324977366E-16,0.));
#402=DIRECTION('center_axis',(-3.39584324977366E-16,1.,0.));
#403=DIRECTION('ref_axis',(1.,3.39584324977366E-16,0.));
#404=DIRECTION('center_axis',(3.39584324977366E-16,-1.,0.));
#405=DIRECTION('ref_axis',(1.,3.39584324977366E-16,0.));
#406=DIRECTION('center_axis',(-3.39584324977366E-16,1.,0.));
#407=DIRECTION('ref_axis',(1.,3.39584324977366E-16,0.));
#408=DIRECTION('center_axis',(-3.39584324977366E-16,1.,0.));
#409=DIRECTION('ref_axis',(1.,3.39584324977366E-16,0.));
#410=DIRECTION('center_axis',(3.39584324977366E-16,-1.,0.));
#411=DIRECTION('ref_axis',(1.,3.39584324977366E-16,0.));
#412=DIRECTION('center_axis',(3.39584324977366E-16,-1.,0.));
#413=DIRECTION('ref_axis',(-1.,-3.5527136788005E-16,0.));
#414=DIRECTION('',(0.,0.,-1.));
#415=DIRECTION('',(-1.,-3.39584324977366E-16,0.));
#416=DIRECTION('',(0.,0.,1.));
#417=DIRECTION('center_axis',(-1.,-3.67383155457201E-16,0.));
#418=DIRECTION('ref_axis',(-3.5527136788005E-16,1.,0.));
#419=DIRECTION('',(0.,0.,-1.));
#420=DIRECTION('',(-3.67383155457201E-16,1.,0.));
#421=DIRECTION('center_axis',(-3.39584324977366E-16,1.,0.));
#422=DIRECTION('ref_axis',(1.,3.5527136788005E-16,0.));
#423=DIRECTION('',(1.,3.39584324977366E-16,0.));
#424=DIRECTION('',(0.,0.,-1.));
#425=DIRECTION('',(1.,3.39584324977366E-16,0.));
#426=DIRECTION('center_axis',(0.,0.,1.));
#427=DIRECTION('ref_axis',(1.,0.,0.));
#428=DIRECTION('center_axis',(0.,0.,-1.));
#429=DIRECTION('ref_axis',(-1.,0.,0.));
#430=DIRECTION('center_axis',(0.,0.,1.));
#431=DIRECTION('ref_axis',(-1.,0.,0.));
#432=DIRECTION('center_axis',(0.,0.,-1.));
#433=DIRECTION('ref_axis',(-1.,0.,0.));
#434=DIRECTION('center_axis',(0.,0.,1.));
#435=DIRECTION('ref_axis',(-1.,0.,0.));
#436=DIRECTION('center_axis',(0.,0.,1.));
#437=DIRECTION('ref_axis',(-1.,0.,0.));
#438=DIRECTION('center_axis',(0.,0.,1.));
#439=DIRECTION('ref_axis',(1.,0.,0.));
#440=DIRECTION('center_axis',(0.,0.,1.));
#441=DIRECTION('ref_axis',(1.,0.,0.));
#442=CARTESIAN_POINT('',(0.,0.,0.));
#443=CARTESIAN_POINT('Origin',(1.7,-4.67246227613957,100.));
#444=CARTESIAN_POINT('',(-3.3,-3.5,100.));
#445=CARTESIAN_POINT('',(1.7,-3.5,95.));
#446=CARTESIAN_POINT('Origin',(1.7,-3.5,100.));
#447=CARTESIAN_POINT('',(-3.3,-5.01098792654702,100.));
#448=CARTESIAN_POINT('',(-3.3,-4.67246227613957,100.));
#449=CARTESIAN_POINT('',(1.7,-5.75412895232632,95.));
#450=CARTESIAN_POINT('Ctrl Pts',(-3.3,-5.01098792654702,100.));
#451=CARTESIAN_POINT('Ctrl Pts',(-3.3,-5.01098792654702,99.4695894668264));
#452=CARTESIAN_POINT('Ctrl Pts',(-3.21042427100547,-5.07316270519778,98.9054614320788));
#453=CARTESIAN_POINT('Ctrl Pts',(-2.84914072353828,-5.28452391282963,97.8516031516556));
#454=CARTESIAN_POINT('Ctrl Pts',(-2.57776956504577,-5.42861681817162,97.3607424226763));
#455=CARTESIAN_POINT('Ctrl Pts',(-1.95483499372404,-5.68243713955596,96.5504284088613));
#456=CARTESIAN_POINT('Ctrl Pts',(-1.55498541929137,-5.81361678282464,96.1647448714841));
#457=CARTESIAN_POINT('Ctrl Pts',(-0.640911807153147,-5.9837573051194,95.547557364295));
#458=CARTESIAN_POINT('Ctrl Pts',(-0.126040100722193,-6.01982495744348,95.3162186054935));
#459=CARTESIAN_POINT('Ctrl Pts',(0.79918752792461,-5.96155543230787,95.0623808969125));
#460=CARTESIAN_POINT('Ctrl Pts',(1.25516463825164,-5.88555112260397,95.));
#461=CARTESIAN_POINT('Ctrl Pts',(1.69999999999993,-5.75412895232634,95.));
#462=CARTESIAN_POINT('',(1.7,-4.67246227613957,95.));
#463=CARTESIAN_POINT('Origin',(-3.3,-5.01098792654702,150.));
#464=CARTESIAN_POINT('',(-3.3,-3.5,150.));
#465=CARTESIAN_POINT('',(-3.3,-3.5,150.));
#466=CARTESIAN_POINT('',(-3.3,-5.01098792654702,150.));
#467=CARTESIAN_POINT('',(-3.3,-2.50549396327351,150.));
#468=CARTESIAN_POINT('',(-3.3,-5.01098792654702,0.));
#469=CARTESIAN_POINT('Origin',(1.7,3.91696831286606,100.));
#470=CARTESIAN_POINT('',(-3.3,5.01098792654702,100.));
#471=CARTESIAN_POINT('',(1.7,5.75412895232632,95.));
#472=CARTESIAN_POINT('Ctrl Pts',(1.69999999999992,5.75412895232634,95.));
#473=CARTESIAN_POINT('Ctrl Pts',(1.25516463825163,5.88555112260397,95.));
#474=CARTESIAN_POINT('Ctrl Pts',(0.799187527924607,5.96155543230787,95.0623808969125));
#475=CARTESIAN_POINT('Ctrl Pts',(-0.126040100722194,6.01982495744347,95.3162186054935));
#476=CARTESIAN_POINT('Ctrl Pts',(-0.640911807153144,5.9837573051194,95.547557364295));
#477=CARTESIAN_POINT('Ctrl Pts',(-1.55498541929137,5.81361678282464,96.1647448714841));
#478=CARTESIAN_POINT('Ctrl Pts',(-1.95483499372404,5.68243713955596,96.5504284088613));
#479=CARTESIAN_POINT('Ctrl Pts',(-2.57776956504578,5.42861681817162,97.3607424226763));
#480=CARTESIAN_POINT('Ctrl Pts',(-2.84914072353828,5.28452391282963,97.8516031516556));
#481=CARTESIAN_POINT('Ctrl Pts',(-3.21042427100548,5.07316270519777,98.9054614320788));
#482=CARTESIAN_POINT('Ctrl Pts',(-3.3,5.01098792654702,99.4695894668264));
#483=CARTESIAN_POINT('Ctrl Pts',(-3.3,5.01098792654702,100.));
#484=CARTESIAN_POINT('',(-3.3,3.5,100.));
#485=CARTESIAN_POINT('',(-3.3,3.91696831286606,100.));
#486=CARTESIAN_POINT('',(1.7,3.5,95.));
#487=CARTESIAN_POINT('Origin',(1.7,3.5,100.));
#488=CARTESIAN_POINT('',(1.7,3.91696831286606,95.));
#489=CARTESIAN_POINT('Origin',(0.497449847389825,4.33393662573213,95.));
#490=CARTESIAN_POINT('',(4.87339717240448,3.5,95.));
#491=CARTESIAN_POINT('',(-3.3,3.5,95.));
#492=CARTESIAN_POINT('Origin',(0.,0.,95.));
#493=CARTESIAN_POINT('Origin',(1.90000000000005,-147.456947504909,105.));
#494=CARTESIAN_POINT('',(0.250000000000002,-3.5,105.));
#495=CARTESIAN_POINT('Origin',(1.9,-3.5,105.));
#496=CARTESIAN_POINT('',(3.55,3.5,105.));
#497=CARTESIAN_POINT('Origin',(1.9,3.5,105.));
#498=CARTESIAN_POINT('Origin',(1.90000000000005,-147.456947504909,125.));
#499=CARTESIAN_POINT('',(0.279000000000002,-3.5,125.));
#500=CARTESIAN_POINT('Origin',(1.9,-3.5,125.));
#501=CARTESIAN_POINT('',(3.521,3.5,125.));
#502=CARTESIAN_POINT('Origin',(1.9,3.5,125.));
#503=CARTESIAN_POINT('Origin',(1.90000000000005,-147.456947504909,135.));
#504=CARTESIAN_POINT('',(0.279000000000002,-3.5,135.));
#505=CARTESIAN_POINT('Origin',(1.9,-3.5,135.));
#506=CARTESIAN_POINT('',(3.521,3.5,135.));
#507=CARTESIAN_POINT('Origin',(1.9,3.5,135.));
#508=CARTESIAN_POINT('Origin',(1.90000000000005,-147.456947504909,117.));
#509=CARTESIAN_POINT('',(0.279000000000002,-3.5,117.));
#510=CARTESIAN_POINT('Origin',(1.9,-3.5,117.));
#511=CARTESIAN_POINT('',(3.521,3.5,117.));
#512=CARTESIAN_POINT('Origin',(1.9,3.5,117.));
#513=CARTESIAN_POINT('Origin',(1.90000000000005,-147.456947504909,145.));
#514=CARTESIAN_POINT('',(-0.349999999999998,-3.5,145.));
#515=CARTESIAN_POINT('Origin',(1.9,-3.5,145.));
#516=CARTESIAN_POINT('',(4.15,3.5,145.));
#517=CARTESIAN_POINT('Origin',(1.9,3.5,145.));
#518=CARTESIAN_POINT('Origin',(1.90000000000005,-147.456947504909,130.));
#519=CARTESIAN_POINT('',(-0.349999999999998,-3.5,130.));
#520=CARTESIAN_POINT('Origin',(1.9,-3.5,130.));
#521=CARTESIAN_POINT('',(4.15,3.5,130.));
#522=CARTESIAN_POINT('Origin',(1.9,3.5,130.));
#523=CARTESIAN_POINT('Origin',(4.87339717240448,3.5,150.));
#524=CARTESIAN_POINT('',(-3.3,3.5,150.));
#525=CARTESIAN_POINT('',(-3.3,3.5,150.));
#526=CARTESIAN_POINT('',(4.87339717240448,3.5,150.));
#527=CARTESIAN_POINT('',(2.43669858620224,3.5,150.));
#528=CARTESIAN_POINT('',(4.87339717240448,3.5,0.));
#529=CARTESIAN_POINT('Origin',(-3.3,3.5,150.));
#530=CARTESIAN_POINT('',(-3.3,5.01098792654702,150.));
#531=CARTESIAN_POINT('',(-3.3,5.01098792654702,0.));
#532=CARTESIAN_POINT('',(-3.3,1.75,150.));
#533=CARTESIAN_POINT('Origin',(-3.3,-3.5,150.));
#534=CARTESIAN_POINT('',(4.87339717240449,-3.5,95.));
#535=CARTESIAN_POINT('',(4.87339717240448,-3.5,95.));
#536=CARTESIAN_POINT('',(4.87339717240448,-3.5,150.));
#537=CARTESIAN_POINT('',(4.87339717240448,-3.5,0.));
#538=CARTESIAN_POINT('',(-1.65,-3.5,150.));
#539=CARTESIAN_POINT('Origin',(0.497449847389827,-4.33393662573213,95.));
#540=CARTESIAN_POINT('Origin',(0.,0.,95.));
#541=CARTESIAN_POINT('Origin',(0.,0.,0.));
#542=CARTESIAN_POINT('',(6.,7.34788079488412E-16,0.));
#543=CARTESIAN_POINT('Origin',(0.,0.,0.));
#544=CARTESIAN_POINT('Origin',(0.,0.,150.));
#545=CARTESIAN_POINT('Origin',(0.,0.,150.));
#546=CARTESIAN_POINT('Origin',(-3.69627624575467E-16,-1.54197642309049E-16,
0.));
#547=CARTESIAN_POINT('Origin',(-3.69627624575467E-16,-1.54197642309049E-16,
150.));
#548=UNCERTAINTY_MEASURE_WITH_UNIT(LENGTH_MEASURE(0.01),#552,
'DISTANCE_ACCURACY_VALUE',
'Maximum model space distance between geometric entities at asserted c
onnectivities');
#549=UNCERTAINTY_MEASURE_WITH_UNIT(LENGTH_MEASURE(1.E-6),#552,
'DISTANCE_ACCURACY_VALUE',
'Maximum model space distance between geometric entities at asserted c
onnectivities');
#550=(
GEOMETRIC_REPRESENTATION_CONTEXT(3)
GLOBAL_UNCERTAINTY_ASSIGNED_CONTEXT((#548))
GLOBAL_UNIT_ASSIGNED_CONTEXT((#552,#555,#553))
REPRESENTATION_CONTEXT('','3D')
);
#551=(
GEOMETRIC_REPRESENTATION_CONTEXT(3)
GLOBAL_UNCERTAINTY_ASSIGNED_CONTEXT((#549))
GLOBAL_UNIT_ASSIGNED_CONTEXT((#552,#555,#553))
REPRESENTATION_CONTEXT('','3D')
);
#552=(
LENGTH_UNIT()
NAMED_UNIT(*)
SI_UNIT(.MILLI.,.METRE.)
);
#553=(
NAMED_UNIT(*)
SI_UNIT($,.STERADIAN.)
SOLID_ANGLE_UNIT()
);
#554=DIMENSIONAL_EXPONENTS(0.,0.,0.,0.,0.,0.,0.);
#555=(
CONVERSION_BASED_UNIT('degree',#557)
NAMED_UNIT(#554)
PLANE_ANGLE_UNIT()
);
#556=(
NAMED_UNIT(*)
PLANE_ANGLE_UNIT()
SI_UNIT($,.RADIAN.)
);
#557=PLANE_ANGLE_MEASURE_WITH_UNIT(PLANE_ANGLE_MEASURE(0.01745329252),#556);
#558=SHAPE_DEFINITION_REPRESENTATION(#559,#560);
#559=PRODUCT_DEFINITION_SHAPE('',$,#562);
#560=SHAPE_REPRESENTATION('',(#315),#550);
#561=PRODUCT_DEFINITION_CONTEXT('part definition',#566,'design');
#562=PRODUCT_DEFINITION('SH-U1-12-150-V','SH-U1-12-150-V',#563,#561);
#563=PRODUCT_DEFINITION_FORMATION('',$,#568);
#564=PRODUCT_RELATED_PRODUCT_CATEGORY('SH-U1-12-150-V','SH-U1-12-150-V',
(#568));
#565=APPLICATION_PROTOCOL_DEFINITION('international standard',
'automotive_design',2009,#566);
#566=APPLICATION_CONTEXT(
'Core Data for Automotive Mechanical Design Process');
#567=PRODUCT_CONTEXT('part definition',#566,'mechanical');
#568=PRODUCT('SH-U1-12-150-V','SH-U1-12-150-V',$,(#567));
#569=PRESENTATION_STYLE_ASSIGNMENT((#570));
#570=SURFACE_STYLE_USAGE(.BOTH.,#571);
#571=SURFACE_SIDE_STYLE('',(#572));
#572=SURFACE_STYLE_FILL_AREA(#573);
#573=FILL_AREA_STYLE('',(#574));
#574=FILL_AREA_STYLE_COLOUR('',#575);
#575=COLOUR_RGB('',0.749019607843137,0.749019607843137,0.749019607843137);
ENDSEC;
END-ISO-10303-21;
