ISO-10303-21;
HEADER;
FILE_DESCRIPTION( ( '' ), '1' );
FILE_NAME( '//expscmdclustefs.cadenas.external/client_exchange/iodir/jobs/output/wkb42192403_no0/STEP/E20938_2_03.stp', '2012-02-21T11:57:26', ( '' ), ( '' ), ' ', ' ', ' ' );
FILE_SCHEMA( ( 'CONFIG_CONTROL_DESIGN' ) );
ENDSEC;
DATA;
#1 = DESIGN_CONTEXT( '', #27, 'design' );
#2 = APPLICATION_PROTOCOL_DEFINITION( 'INTERNATIONAL STANDARD', 'config_control_design', 1994, #27 );
#3 = PRODUCT_CATEGORY_RELATIONSHIP( 'NONE', 'NONE', #28, #29 );
#4 = DATE_AND_TIME( #30, #31 );
#5 = DATE_TIME_ROLE( 'creation_date' );
#6 = DATE_TIME_ROLE( 'classification_date' );
#7 = PERSON_AND_ORGANIZATION_ROLE( 'creator' );
#8 = PERSON_AND_ORGANIZATION_ROLE( 'design_supplier' );
#9 = PERSON_AND_ORGANIZATION_ROLE( 'classification_officer' );
#10 = PERSON_AND_ORGANIZATION_ROLE( 'design_owner' );
#11 = APPROVAL_PERSON_ORGANIZATION( #32, #33, #34 );
#12 = APPROVAL_DATE_TIME( #4, #33 );
#13 = CC_DESIGN_APPROVAL( #33, ( #35, #36, #37 ) );
#14 = CC_DESIGN_DATE_AND_TIME_ASSIGNMENT( #4, #5, ( #37 ) );
#15 = CC_DESIGN_DATE_AND_TIME_ASSIGNMENT( #4, #6, ( #35 ) );
#16 = CC_DESIGN_PERSON_AND_ORGANIZATION_ASSIGNMENT( #32, #10, ( #38 ) );
#17 = CC_DESIGN_PERSON_AND_ORGANIZATION_ASSIGNMENT( #32, #7, ( #37 ) );
#18 = CC_DESIGN_PERSON_AND_ORGANIZATION_ASSIGNMENT( #32, #7, ( #36 ) );
#19 = CC_DESIGN_PERSON_AND_ORGANIZATION_ASSIGNMENT( #32, #8, ( #36 ) );
#20 = CC_DESIGN_SECURITY_CLASSIFICATION( #35, ( #36 ) );
#21 = CC_DESIGN_PERSON_AND_ORGANIZATION_ASSIGNMENT( #32, #9, ( #35 ) );
#22 = SHAPE_DEFINITION_REPRESENTATION( #39, #40 );
#23 =  ( GEOMETRIC_REPRESENTATION_CONTEXT( 3 )GLOBAL_UNCERTAINTY_ASSIGNED_CONTEXT( ( #43 ) )GLOBAL_UNIT_ASSIGNED_CONTEXT( ( #45, #46, #47 ) )REPRESENTATION_CONTEXT( 'NONE', 'WORKSPACE' ) );
#27 = APPLICATION_CONTEXT( 'CONFIGURATION CONTROLLED 3D DESIGNS OF MECHANICAL PARTS AND ASSEMBLIES' );
#28 = PRODUCT_CATEGORY( 'part', 'NONE' );
#29 = PRODUCT_RELATED_PRODUCT_CATEGORY( 'detail', ' ', ( #38 ) );
#30 = CALENDAR_DATE( 2012, 21, 1 );
#31 = LOCAL_TIME( 12, 57, 26.0000000000000, #49 );
#32 = PERSON_AND_ORGANIZATION( #50, #51 );
#33 = APPROVAL( #52, 'SOLID MODEL' );
#34 = APPROVAL_ROLE( 'APPROVED' );
#35 = SECURITY_CLASSIFICATION( '', '', #53 );
#36 = PRODUCT_DEFINITION_FORMATION_WITH_SPECIFIED_SOURCE( ' ', 'NONE', #38, .NOT_KNOWN. );
#37 = PRODUCT_DEFINITION( 'NONE', 'NONE', #36, #1 );
#38 = PRODUCT( '1', '1', 'PART-1-DESC', ( #54 ) );
#39 = PRODUCT_DEFINITION_SHAPE( 'NONE', 'NONE', #37 );
#40 = ADVANCED_BREP_SHAPE_REPRESENTATION( '1', ( #55, #56 ), #23 );
#43 = UNCERTAINTY_MEASURE_WITH_UNIT( LENGTH_MEASURE( 1.00000000000000E-006 ), #45, '', '' );
#45 =  ( CONVERSION_BASED_UNIT( 'MILLIMETRE', #59 )LENGTH_UNIT(  )NAMED_UNIT( #62 ) );
#46 =  ( NAMED_UNIT( #64 )PLANE_ANGLE_UNIT(  )SI_UNIT( $, .RADIAN. ) );
#47 =  ( NAMED_UNIT( #64 )SOLID_ANGLE_UNIT(  )SI_UNIT( $, .STERADIAN. ) );
#49 = COORDINATED_UNIVERSAL_TIME_OFFSET( 1, 0, .AHEAD. );
#50 = PERSON( '', 'UNSPECIFIED', $, $, $, $ );
#51 = ORGANIZATION( 'UNSPECIFIED', 'UNSPECIFIED', 'UNSPECIFIED' );
#52 = APPROVAL_STATUS( 'approved' );
#53 = SECURITY_CLASSIFICATION_LEVEL( 'unclassified' );
#54 = MECHANICAL_CONTEXT( '', #27, 'mechanical' );
#55 = MANIFOLD_SOLID_BREP( '1', #70 );
#56 = AXIS2_PLACEMENT_3D( '', #71, #72, #73 );
#59 = LENGTH_MEASURE_WITH_UNIT( LENGTH_MEASURE( 1.00000000000000 ), #74 );
#62 = DIMENSIONAL_EXPONENTS( 1.00000000000000, 0.000000000000000, 0.000000000000000, 0.000000000000000, 0.000000000000000, 0.000000000000000, 0.000000000000000 );
#64 = DIMENSIONAL_EXPONENTS( 0.000000000000000, 0.000000000000000, 0.000000000000000, 0.000000000000000, 0.000000000000000, 0.000000000000000, 0.000000000000000 );
#70 = CLOSED_SHELL( '', ( #75, #76, #77, #78, #79, #80, #81, #82, #83, #84, #85, #86 ) );
#71 = CARTESIAN_POINT( '', ( 0.000000000000000, 0.000000000000000, 0.000000000000000 ) );
#72 = DIRECTION( '', ( 0.000000000000000, 0.000000000000000, 1.00000000000000 ) );
#73 = DIRECTION( '', ( 1.00000000000000, 0.000000000000000, 0.000000000000000 ) );
#74 =  ( NAMED_UNIT( #62 )LENGTH_UNIT(  )SI_UNIT( .MILLI., .METRE. ) );
#75 = ADVANCED_FACE( '', ( #88 ), #89, .T. );
#76 = ADVANCED_FACE( '', ( #90 ), #91, .T. );
#77 = ADVANCED_FACE( '', ( #92 ), #93, .F. );
#78 = ADVANCED_FACE( '', ( #94 ), #95, .T. );
#79 = ADVANCED_FACE( '', ( #96 ), #97, .T. );
#80 = ADVANCED_FACE( '', ( #98 ), #99, .T. );
#81 = ADVANCED_FACE( '', ( #100 ), #101, .T. );
#82 = ADVANCED_FACE( '', ( #102 ), #103, .T. );
#83 = ADVANCED_FACE( '', ( #104 ), #105, .F. );
#84 = ADVANCED_FACE( '', ( #106 ), #107, .T. );
#85 = ADVANCED_FACE( '', ( #108 ), #109, .T. );
#86 = ADVANCED_FACE( '', ( #110 ), #111, .T. );
#88 = FACE_OUTER_BOUND( '', #112, .T. );
#89 = CONICAL_SURFACE( '', #113, 5.75000000000000, 0.785398163397448 );
#90 = FACE_OUTER_BOUND( '', #114, .T. );
#91 = CYLINDRICAL_SURFACE( '', #115, 6.00000000000000 );
#92 = FACE_OUTER_BOUND( '', #116, .T. );
#93 = TOROIDAL_SURFACE( '', #117, 6.00000000000000, 1.00000000000000 );
#94 = FACE_OUTER_BOUND( '', #118, .T. );
#95 = CYLINDRICAL_SURFACE( '', #119, 5.00000000000000 );
#96 = FACE_OUTER_BOUND( '', #120, .T. );
#97 = CONICAL_SURFACE( '', #121, 4.54000000000000, 0.785398163397447 );
#98 = FACE_OUTER_BOUND( '', #122, .T. );
#99 = PLANE( '', #123 );
#100 = FACE_OUTER_BOUND( '', #124, .T. );
#101 = CONICAL_SURFACE( '', #125, 4.54000000000000, 0.785398163397447 );
#102 = FACE_OUTER_BOUND( '', #126, .T. );
#103 = CYLINDRICAL_SURFACE( '', #127, 5.00000000000000 );
#104 = FACE_OUTER_BOUND( '', #128, .T. );
#105 = TOROIDAL_SURFACE( '', #129, 6.00000000000000, 1.00000000000000 );
#106 = FACE_OUTER_BOUND( '', #130, .T. );
#107 = CYLINDRICAL_SURFACE( '', #131, 6.00000000000000 );
#108 = FACE_OUTER_BOUND( '', #132, .T. );
#109 = CONICAL_SURFACE( '', #133, 5.75000000000000, 0.785398163397448 );
#110 = FACE_OUTER_BOUND( '', #134, .T. );
#111 = PLANE( '', #135 );
#112 = EDGE_LOOP( '', ( #136, #137, #138, #139 ) );
#113 = AXIS2_PLACEMENT_3D( '', #140, #141, #142 );
#114 = EDGE_LOOP( '', ( #143, #144, #145, #146, #147 ) );
#115 = AXIS2_PLACEMENT_3D( '', #148, #149, #150 );
#116 = EDGE_LOOP( '', ( #151, #152, #153, #154, #155, #156 ) );
#117 = AXIS2_PLACEMENT_3D( '', #157, #158, #159 );
#118 = EDGE_LOOP( '', ( #160, #161, #162, #163, #164 ) );
#119 = AXIS2_PLACEMENT_3D( '', #165, #166, #167 );
#120 = EDGE_LOOP( '', ( #168, #169, #170, #171 ) );
#121 = AXIS2_PLACEMENT_3D( '', #172, #173, #174 );
#122 = EDGE_LOOP( '', ( #175, #176 ) );
#123 = AXIS2_PLACEMENT_3D( '', #177, #178, #179 );
#124 = EDGE_LOOP( '', ( #180, #181, #182, #183 ) );
#125 = AXIS2_PLACEMENT_3D( '', #184, #185, #186 );
#126 = EDGE_LOOP( '', ( #187, #188, #189, #190, #191 ) );
#127 = AXIS2_PLACEMENT_3D( '', #192, #193, #194 );
#128 = EDGE_LOOP( '', ( #195, #196, #197, #198, #199, #200 ) );
#129 = AXIS2_PLACEMENT_3D( '', #201, #202, #203 );
#130 = EDGE_LOOP( '', ( #204, #205, #206, #207, #208 ) );
#131 = AXIS2_PLACEMENT_3D( '', #209, #210, #211 );
#132 = EDGE_LOOP( '', ( #212, #213, #214, #215 ) );
#133 = AXIS2_PLACEMENT_3D( '', #216, #217, #218 );
#134 = EDGE_LOOP( '', ( #219, #220 ) );
#135 = AXIS2_PLACEMENT_3D( '', #221, #222, #223 );
#136 = ORIENTED_EDGE( '', *, *, #224, .F. );
#137 = ORIENTED_EDGE( '', *, *, #225, .T. );
#138 = ORIENTED_EDGE( '', *, *, #226, .F. );
#139 = ORIENTED_EDGE( '', *, *, #227, .F. );
#140 = CARTESIAN_POINT( '', ( 0.000000000000000, 129.750000000000, 0.000000000000000 ) );
#141 = DIRECTION( '', ( -0.000000000000000, -1.00000000000000, -0.000000000000000 ) );
#142 = DIRECTION( '', ( 1.00000000000000, 0.000000000000000, -2.44921270764475E-016 ) );
#143 = ORIENTED_EDGE( '', *, *, #228, .F. );
#144 = ORIENTED_EDGE( '', *, *, #229, .T. );
#145 = ORIENTED_EDGE( '', *, *, #230, .T. );
#146 = ORIENTED_EDGE( '', *, *, #231, .F. );
#147 = ORIENTED_EDGE( '', *, *, #225, .F. );
#148 = CARTESIAN_POINT( '', ( 0.000000000000000, 79.7500000000000, 0.000000000000000 ) );
#149 = DIRECTION( '', ( -0.000000000000000, -1.00000000000000, -0.000000000000000 ) );
#150 = DIRECTION( '', ( 1.00000000000000, 0.000000000000000, -2.44921270764475E-016 ) );
#151 = ORIENTED_EDGE( '', *, *, #232, .F. );
#152 = ORIENTED_EDGE( '', *, *, #233, .T. );
#153 = ORIENTED_EDGE( '', *, *, #234, .T. );
#154 = ORIENTED_EDGE( '', *, *, #235, .F. );
#155 = ORIENTED_EDGE( '', *, *, #236, .F. );
#156 = ORIENTED_EDGE( '', *, *, #230, .F. );
#157 = CARTESIAN_POINT( '', ( 0.000000000000000, 29.0000000000000, 0.000000000000000 ) );
#158 = DIRECTION( '', ( 0.000000000000000, 1.00000000000000, 0.000000000000000 ) );
#159 = DIRECTION( '', ( 0.000000000000000, 0.000000000000000, 1.00000000000000 ) );
#160 = ORIENTED_EDGE( '', *, *, #237, .F. );
#161 = ORIENTED_EDGE( '', *, *, #238, .T. );
#162 = ORIENTED_EDGE( '', *, *, #239, .F. );
#163 = ORIENTED_EDGE( '', *, *, #233, .F. );
#164 = ORIENTED_EDGE( '', *, *, #240, .F. );
#165 = CARTESIAN_POINT( '', ( 0.000000000000000, 14.9600000000000, 0.000000000000000 ) );
#166 = DIRECTION( '', ( -0.000000000000000, -1.00000000000000, -0.000000000000000 ) );
#167 = DIRECTION( '', ( 1.00000000000000, 0.000000000000000, -2.44921270764475E-016 ) );
#168 = ORIENTED_EDGE( '', *, *, #241, .F. );
#169 = ORIENTED_EDGE( '', *, *, #242, .T. );
#170 = ORIENTED_EDGE( '', *, *, #243, .F. );
#171 = ORIENTED_EDGE( '', *, *, #238, .F. );
#172 = CARTESIAN_POINT( '', ( 0.000000000000000, 0.460000000000008, 0.000000000000000 ) );
#173 = DIRECTION( '', ( -0.000000000000000, 1.00000000000000, 0.000000000000000 ) );
#174 = DIRECTION( '', ( 1.00000000000000, 0.000000000000000, -2.44921270764475E-016 ) );
#175 = ORIENTED_EDGE( '', *, *, #242, .F. );
#176 = ORIENTED_EDGE( '', *, *, #244, .F. );
#177 = CARTESIAN_POINT( '', ( 2.04000000000000, 0.000000000000000, -4.99639392359530E-016 ) );
#178 = DIRECTION( '', ( -0.000000000000000, -1.00000000000000, 0.000000000000000 ) );
#179 = DIRECTION( '', ( -1.00000000000000, 0.000000000000000, 2.44921270764475E-016 ) );
#180 = ORIENTED_EDGE( '', *, *, #241, .T. );
#181 = ORIENTED_EDGE( '', *, *, #245, .F. );
#182 = ORIENTED_EDGE( '', *, *, #243, .T. );
#183 = ORIENTED_EDGE( '', *, *, #244, .T. );
#184 = CARTESIAN_POINT( '', ( 0.000000000000000, 0.460000000000008, 0.000000000000000 ) );
#185 = DIRECTION( '', ( -0.000000000000000, 1.00000000000000, 0.000000000000000 ) );
#186 = DIRECTION( '', ( 1.00000000000000, 0.000000000000000, -2.44921270764475E-016 ) );
#187 = ORIENTED_EDGE( '', *, *, #237, .T. );
#188 = ORIENTED_EDGE( '', *, *, #246, .F. );
#189 = ORIENTED_EDGE( '', *, *, #234, .F. );
#190 = ORIENTED_EDGE( '', *, *, #239, .T. );
#191 = ORIENTED_EDGE( '', *, *, #245, .T. );
#192 = CARTESIAN_POINT( '', ( 0.000000000000000, 14.9600000000000, 0.000000000000000 ) );
#193 = DIRECTION( '', ( -0.000000000000000, -1.00000000000000, -0.000000000000000 ) );
#194 = DIRECTION( '', ( 1.00000000000000, 0.000000000000000, -2.44921270764475E-016 ) );
#195 = ORIENTED_EDGE( '', *, *, #232, .T. );
#196 = ORIENTED_EDGE( '', *, *, #229, .F. );
#197 = ORIENTED_EDGE( '', *, *, #247, .F. );
#198 = ORIENTED_EDGE( '', *, *, #235, .T. );
#199 = ORIENTED_EDGE( '', *, *, #246, .T. );
#200 = ORIENTED_EDGE( '', *, *, #240, .T. );
#201 = CARTESIAN_POINT( '', ( 0.000000000000000, 29.0000000000000, 0.000000000000000 ) );
#202 = DIRECTION( '', ( 0.000000000000000, 1.00000000000000, 0.000000000000000 ) );
#203 = DIRECTION( '', ( 0.000000000000000, 0.000000000000000, 1.00000000000000 ) );
#204 = ORIENTED_EDGE( '', *, *, #228, .T. );
#205 = ORIENTED_EDGE( '', *, *, #248, .F. );
#206 = ORIENTED_EDGE( '', *, *, #231, .T. );
#207 = ORIENTED_EDGE( '', *, *, #236, .T. );
#208 = ORIENTED_EDGE( '', *, *, #247, .T. );
#209 = CARTESIAN_POINT( '', ( 0.000000000000000, 79.7500000000000, 0.000000000000000 ) );
#210 = DIRECTION( '', ( -0.000000000000000, -1.00000000000000, -0.000000000000000 ) );
#211 = DIRECTION( '', ( 1.00000000000000, 0.000000000000000, -2.44921270764475E-016 ) );
#212 = ORIENTED_EDGE( '', *, *, #224, .T. );
#213 = ORIENTED_EDGE( '', *, *, #249, .F. );
#214 = ORIENTED_EDGE( '', *, *, #226, .T. );
#215 = ORIENTED_EDGE( '', *, *, #248, .T. );
#216 = CARTESIAN_POINT( '', ( 0.000000000000000, 129.750000000000, 0.000000000000000 ) );
#217 = DIRECTION( '', ( -0.000000000000000, -1.00000000000000, -0.000000000000000 ) );
#218 = DIRECTION( '', ( 1.00000000000000, 0.000000000000000, -2.44921270764475E-016 ) );
#219 = ORIENTED_EDGE( '', *, *, #227, .T. );
#220 = ORIENTED_EDGE( '', *, *, #249, .T. );
#221 = CARTESIAN_POINT( '', ( 2.75000000000000, 130.000000000000, -6.73533494602307E-016 ) );
#222 = DIRECTION( '', ( 0.000000000000000, 1.00000000000000, 0.000000000000000 ) );
#223 = DIRECTION( '', ( 1.00000000000000, 0.000000000000000, -2.44921270764475E-016 ) );
#224 = EDGE_CURVE( '', #250, #251, #252, .T. );
#225 = EDGE_CURVE( '', #250, #253, #254, .T. );
#226 = EDGE_CURVE( '', #255, #253, #256, .T. );
#227 = EDGE_CURVE( '', #251, #255, #257, .T. );
#228 = EDGE_CURVE( '', #258, #250, #259, .T. );
#229 = EDGE_CURVE( '', #258, #260, #261, .T. );
#230 = EDGE_CURVE( '', #260, #262, #263, .T. );
#231 = EDGE_CURVE( '', #253, #262, #264, .T. );
#232 = EDGE_CURVE( '', #265, #260, #266, .T. );
#233 = EDGE_CURVE( '', #265, #267, #268, .T. );
#234 = EDGE_CURVE( '', #267, #269, #270, .T. );
#235 = EDGE_CURVE( '', #271, #269, #272, .T. );
#236 = EDGE_CURVE( '', #262, #271, #273, .T. );
#237 = EDGE_CURVE( '', #274, #275, #276, .T. );
#238 = EDGE_CURVE( '', #274, #277, #278, .T. );
#239 = EDGE_CURVE( '', #267, #277, #279, .T. );
#240 = EDGE_CURVE( '', #275, #265, #280, .T. );
#241 = EDGE_CURVE( '', #281, #274, #282, .T. );
#242 = EDGE_CURVE( '', #281, #283, #284, .T. );
#243 = EDGE_CURVE( '', #277, #283, #285, .T. );
#244 = EDGE_CURVE( '', #283, #281, #286, .T. );
#245 = EDGE_CURVE( '', #277, #274, #287, .T. );
#246 = EDGE_CURVE( '', #269, #275, #288, .T. );
#247 = EDGE_CURVE( '', #271, #258, #289, .T. );
#248 = EDGE_CURVE( '', #253, #250, #290, .T. );
#249 = EDGE_CURVE( '', #255, #251, #291, .T. );
#250 = VERTEX_POINT( '', #292 );
#251 = VERTEX_POINT( '', #293 );
#252 = LINE( '', #294, #295 );
#253 = VERTEX_POINT( '', #296 );
#254 = CIRCLE( '', #297, 6.00000000000000 );
#255 = VERTEX_POINT( '', #298 );
#256 = LINE( '', #299, #300 );
#257 = CIRCLE( '', #301, 5.50000000000000 );
#258 = VERTEX_POINT( '', #302 );
#259 = LINE( '', #303, #304 );
#260 = VERTEX_POINT( '', #305 );
#261 = CIRCLE( '', #306, 6.00000000000000 );
#262 = VERTEX_POINT( '', #307 );
#263 = CIRCLE( '', #308, 6.00000000000000 );
#264 = LINE( '', #309, #310 );
#265 = VERTEX_POINT( '', #311 );
#266 = CIRCLE( '', #312, 1.00000000000000 );
#267 = VERTEX_POINT( '', #313 );
#268 = CIRCLE( '', #314, 5.00000000000000 );
#269 = VERTEX_POINT( '', #315 );
#270 = CIRCLE( '', #316, 5.00000000000000 );
#271 = VERTEX_POINT( '', #317 );
#272 = CIRCLE( '', #318, 1.00000000000000 );
#273 = CIRCLE( '', #319, 6.00000000000000 );
#274 = VERTEX_POINT( '', #320 );
#275 = VERTEX_POINT( '', #321 );
#276 = LINE( '', #322, #323 );
#277 = VERTEX_POINT( '', #324 );
#278 = CIRCLE( '', #325, 5.00000000000000 );
#279 = LINE( '', #326, #327 );
#280 = CIRCLE( '', #328, 5.00000000000000 );
#281 = VERTEX_POINT( '', #329 );
#282 = LINE( '', #330, #331 );
#283 = VERTEX_POINT( '', #332 );
#284 = CIRCLE( '', #333, 4.08000000000000 );
#285 = LINE( '', #334, #335 );
#286 = CIRCLE( '', #336, 4.08000000000000 );
#287 = CIRCLE( '', #337, 5.00000000000000 );
#288 = CIRCLE( '', #338, 5.00000000000000 );
#289 = CIRCLE( '', #339, 6.00000000000000 );
#290 = CIRCLE( '', #340, 6.00000000000000 );
#291 = CIRCLE( '', #341, 5.50000000000000 );
#292 = CARTESIAN_POINT( '', ( 6.00000000000000, 129.500000000000, -1.46952762458685E-015 ) );
#293 = CARTESIAN_POINT( '', ( 5.50000000000000, 130.000000000000, -1.34706698920462E-015 ) );
#294 = CARTESIAN_POINT( '', ( 5.75000000000000, 129.750000000000, -7.04148653447867E-016 ) );
#295 = VECTOR( '', #342, 1.00000000000000 );
#296 = CARTESIAN_POINT( '', ( -6.00000000000000, 129.500000000000, 7.34763812293426E-016 ) );
#297 = AXIS2_PLACEMENT_3D( '', #343, #344, #345 );
#298 = CARTESIAN_POINT( '', ( -5.50000000000000, 130.000000000000, 6.73533494602307E-016 ) );
#299 = CARTESIAN_POINT( '', ( -5.75000000000000, 129.750000000000, 7.04148653447867E-016 ) );
#300 = VECTOR( '', #346, 1.00000000000000 );
#301 = AXIS2_PLACEMENT_3D( '', #347, #348, #349 );
#302 = CARTESIAN_POINT( '', ( 6.00000000000000, 30.0000000000000, -1.46952762458685E-015 ) );
#303 = CARTESIAN_POINT( '', ( 6.00000000000000, 79.7500000000000, -7.34763812293426E-016 ) );
#304 = VECTOR( '', #350, 1.00000000000000 );
#305 = CARTESIAN_POINT( '', ( 7.34763812293426E-016, 30.0000000000000, -6.00000000000000 ) );
#306 = AXIS2_PLACEMENT_3D( '', #351, #352, #353 );
#307 = CARTESIAN_POINT( '', ( -6.00000000000000, 30.0000000000000, 7.34763812293426E-016 ) );
#308 = AXIS2_PLACEMENT_3D( '', #354, #355, #356 );
#309 = CARTESIAN_POINT( '', ( -6.00000000000000, 79.7500000000000, 7.34763812293426E-016 ) );
#310 = VECTOR( '', #357, 1.00000000000000 );
#311 = CARTESIAN_POINT( '', ( 6.12303176911189E-016, 29.0000000000000, -5.00000000000000 ) );
#312 = AXIS2_PLACEMENT_3D( '', #358, #359, #360 );
#313 = CARTESIAN_POINT( '', ( -5.00000000000000, 29.0000000000000, 6.12303176911189E-016 ) );
#314 = AXIS2_PLACEMENT_3D( '', #361, #362, #363 );
#315 = CARTESIAN_POINT( '', ( -6.12303176911189E-016, 29.0000000000000, 5.00000000000000 ) );
#316 = AXIS2_PLACEMENT_3D( '', #364, #365, #366 );
#317 = CARTESIAN_POINT( '', ( -7.34763812293426E-016, 30.0000000000000, 6.00000000000000 ) );
#318 = AXIS2_PLACEMENT_3D( '', #367, #368, #369 );
#319 = AXIS2_PLACEMENT_3D( '', #370, #371, #372 );
#320 = CARTESIAN_POINT( '', ( 5.00000000000000, 0.920000000000002, -1.22460635382238E-015 ) );
#321 = CARTESIAN_POINT( '', ( 5.00000000000000, 29.0000000000000, -1.22460635382238E-015 ) );
#322 = CARTESIAN_POINT( '', ( 5.00000000000000, 14.9600000000000, -6.12303176911189E-016 ) );
#323 = VECTOR( '', #373, 1.00000000000000 );
#324 = CARTESIAN_POINT( '', ( -5.00000000000000, 0.920000000000016, 6.12303176911189E-016 ) );
#325 = AXIS2_PLACEMENT_3D( '', #374, #375, #376 );
#326 = CARTESIAN_POINT( '', ( -5.00000000000000, 14.9600000000000, 6.12303176911189E-016 ) );
#327 = VECTOR( '', #377, 1.00000000000000 );
#328 = AXIS2_PLACEMENT_3D( '', #378, #379, #380 );
#329 = CARTESIAN_POINT( '', ( 4.08000000000000, 0.000000000000000, -9.99278784719060E-016 ) );
#330 = CARTESIAN_POINT( '', ( 4.54000000000000, 0.460000000000008, -5.55971284635359E-016 ) );
#331 = VECTOR( '', #381, 1.00000000000000 );
#332 = CARTESIAN_POINT( '', ( -4.08000000000000, 0.000000000000000, 4.99639392359530E-016 ) );
#333 = AXIS2_PLACEMENT_3D( '', #382, #383, #384 );
#334 = CARTESIAN_POINT( '', ( -4.54000000000000, 0.460000000000008, 5.55971284635359E-016 ) );
#335 = VECTOR( '', #385, 1.00000000000000 );
#336 = AXIS2_PLACEMENT_3D( '', #386, #387, #388 );
#337 = AXIS2_PLACEMENT_3D( '', #389, #390, #391 );
#338 = AXIS2_PLACEMENT_3D( '', #392, #393, #394 );
#339 = AXIS2_PLACEMENT_3D( '', #395, #396, #397 );
#340 = AXIS2_PLACEMENT_3D( '', #398, #399, #400 );
#341 = AXIS2_PLACEMENT_3D( '', #401, #402, #403 );
#342 = DIRECTION( '', ( -0.707106781186548, 0.707106781186548, 8.65927457071936E-017 ) );
#343 = CARTESIAN_POINT( '', ( 0.000000000000000, 129.500000000000, 0.000000000000000 ) );
#344 = DIRECTION( '', ( 0.000000000000000, 1.00000000000000, 0.000000000000000 ) );
#345 = DIRECTION( '', ( 1.00000000000000, 0.000000000000000, -2.44921270764475E-016 ) );
#346 = DIRECTION( '', ( -0.707106781186548, -0.707106781186548, 8.65927457071935E-017 ) );
#347 = CARTESIAN_POINT( '', ( 0.000000000000000, 130.000000000000, 0.000000000000000 ) );
#348 = DIRECTION( '', ( 0.000000000000000, 1.00000000000000, 0.000000000000000 ) );
#349 = DIRECTION( '', ( 1.00000000000000, 0.000000000000000, -2.44921270764475E-016 ) );
#350 = DIRECTION( '', ( 0.000000000000000, 1.00000000000000, 0.000000000000000 ) );
#351 = CARTESIAN_POINT( '', ( 0.000000000000000, 30.0000000000000, 0.000000000000000 ) );
#352 = DIRECTION( '', ( 0.000000000000000, 1.00000000000000, 0.000000000000000 ) );
#353 = DIRECTION( '', ( 1.00000000000000, 0.000000000000000, -2.44921270764475E-016 ) );
#354 = CARTESIAN_POINT( '', ( 0.000000000000000, 30.0000000000000, 0.000000000000000 ) );
#355 = DIRECTION( '', ( 0.000000000000000, 1.00000000000000, 0.000000000000000 ) );
#356 = DIRECTION( '', ( 1.00000000000000, 0.000000000000000, -2.44921270764475E-016 ) );
#357 = DIRECTION( '', ( -0.000000000000000, -1.00000000000000, -0.000000000000000 ) );
#358 = CARTESIAN_POINT( '', ( 7.34763812293427E-016, 29.0000000000000, -6.00000000000000 ) );
#359 = DIRECTION( '', ( -1.00000000000000, 0.000000000000000, -1.22460635382238E-016 ) );
#360 = DIRECTION( '', ( 1.22460635382238E-016, -0.000000000000000, -1.00000000000000 ) );
#361 = CARTESIAN_POINT( '', ( 0.000000000000000, 29.0000000000000, 0.000000000000000 ) );
#362 = DIRECTION( '', ( 0.000000000000000, 1.00000000000000, 0.000000000000000 ) );
#363 = DIRECTION( '', ( 1.00000000000000, 0.000000000000000, -2.44921270764475E-016 ) );
#364 = CARTESIAN_POINT( '', ( 0.000000000000000, 29.0000000000000, 0.000000000000000 ) );
#365 = DIRECTION( '', ( 0.000000000000000, 1.00000000000000, 0.000000000000000 ) );
#366 = DIRECTION( '', ( 1.00000000000000, 0.000000000000000, -2.44921270764475E-016 ) );
#367 = CARTESIAN_POINT( '', ( -7.34763812293427E-016, 29.0000000000000, 6.00000000000000 ) );
#368 = DIRECTION( '', ( -1.00000000000000, 0.000000000000000, -1.22460635382238E-016 ) );
#369 = DIRECTION( '', ( -1.22460635382238E-016, 0.000000000000000, 1.00000000000000 ) );
#370 = CARTESIAN_POINT( '', ( 0.000000000000000, 30.0000000000000, 0.000000000000000 ) );
#371 = DIRECTION( '', ( 0.000000000000000, 1.00000000000000, 0.000000000000000 ) );
#372 = DIRECTION( '', ( 1.00000000000000, 0.000000000000000, -2.44921270764475E-016 ) );
#373 = DIRECTION( '', ( 0.000000000000000, 1.00000000000000, 0.000000000000000 ) );
#374 = CARTESIAN_POINT( '', ( 0.000000000000000, 0.920000000000016, 0.000000000000000 ) );
#375 = DIRECTION( '', ( 0.000000000000000, 1.00000000000000, 0.000000000000000 ) );
#376 = DIRECTION( '', ( 1.00000000000000, 0.000000000000000, -2.44921270764475E-016 ) );
#377 = DIRECTION( '', ( -0.000000000000000, -1.00000000000000, -0.000000000000000 ) );
#378 = CARTESIAN_POINT( '', ( 0.000000000000000, 29.0000000000000, 0.000000000000000 ) );
#379 = DIRECTION( '', ( 0.000000000000000, 1.00000000000000, 0.000000000000000 ) );
#380 = DIRECTION( '', ( 1.00000000000000, 0.000000000000000, -2.44921270764475E-016 ) );
#381 = DIRECTION( '', ( 0.707106781186547, 0.707106781186548, -8.65927457071935E-017 ) );
#382 = CARTESIAN_POINT( '', ( 0.000000000000000, 0.000000000000000, 0.000000000000000 ) );
#383 = DIRECTION( '', ( 0.000000000000000, 1.00000000000000, 0.000000000000000 ) );
#384 = DIRECTION( '', ( 1.00000000000000, 0.000000000000000, -2.44921270764475E-016 ) );
#385 = DIRECTION( '', ( 0.707106781186547, -0.707106781186548, -8.65927457071935E-017 ) );
#386 = CARTESIAN_POINT( '', ( 0.000000000000000, 0.000000000000000, 0.000000000000000 ) );
#387 = DIRECTION( '', ( 0.000000000000000, 1.00000000000000, 0.000000000000000 ) );
#388 = DIRECTION( '', ( 1.00000000000000, 0.000000000000000, -2.44921270764475E-016 ) );
#389 = CARTESIAN_POINT( '', ( 0.000000000000000, 0.920000000000016, 0.000000000000000 ) );
#390 = DIRECTION( '', ( 0.000000000000000, 1.00000000000000, 0.000000000000000 ) );
#391 = DIRECTION( '', ( 1.00000000000000, 0.000000000000000, -2.44921270764475E-016 ) );
#392 = CARTESIAN_POINT( '', ( 0.000000000000000, 29.0000000000000, 0.000000000000000 ) );
#393 = DIRECTION( '', ( 0.000000000000000, 1.00000000000000, 0.000000000000000 ) );
#394 = DIRECTION( '', ( 1.00000000000000, 0.000000000000000, -2.44921270764475E-016 ) );
#395 = CARTESIAN_POINT( '', ( 0.000000000000000, 30.0000000000000, 0.000000000000000 ) );
#396 = DIRECTION( '', ( 0.000000000000000, 1.00000000000000, 0.000000000000000 ) );
#397 = DIRECTION( '', ( 1.00000000000000, 0.000000000000000, -2.44921270764475E-016 ) );
#398 = CARTESIAN_POINT( '', ( 0.000000000000000, 129.500000000000, 0.000000000000000 ) );
#399 = DIRECTION( '', ( 0.000000000000000, 1.00000000000000, 0.000000000000000 ) );
#400 = DIRECTION( '', ( 1.00000000000000, 0.000000000000000, -2.44921270764475E-016 ) );
#401 = CARTESIAN_POINT( '', ( 0.000000000000000, 130.000000000000, 0.000000000000000 ) );
#402 = DIRECTION( '', ( 0.000000000000000, 1.00000000000000, 0.000000000000000 ) );
#403 = DIRECTION( '', ( 1.00000000000000, 0.000000000000000, -2.44921270764475E-016 ) );
ENDSEC;
END-ISO-10303-21;
