ISO-10303-21;
HEADER;
/* Generated by software containing ST-Developer
 * from STEP Tools, Inc. (www.steptools.com) 
 */

FILE_DESCRIPTION(
/* description */ ('Mounting Pipe'),
/* implementation_level */ '2;1');

FILE_NAME(
/* name */ 
'G:\\Entwicklung\\Zeichnungen\\3D\\parts - step iges\\SBT-VR-400-M30.s
tp',
/* time_stamp */ '2023-08-29T11:21:29+02:00',
/* author */ ('S. Sandt'),
/* organization */ ('di-soric GmbH & Co. KG'),
/* preprocessor_version */ 'ST-DEVELOPER v18.1',
/* originating_system */ 'Autodesk Inventor 2022',
/* authorisation */ '');

FILE_SCHEMA (('AUTOMOTIVE_DESIGN { 1 0 10303 214 3 1 1 }'));
ENDSEC;

DATA;
#10=MECHANICAL_DESIGN_GEOMETRIC_PRESENTATION_REPRESENTATION('',(#13),#269);
#11=SHAPE_REPRESENTATION_RELATIONSHIP('SRR','None',#276,#12);
#12=ADVANCED_BREP_SHAPE_REPRESENTATION('',(#14),#268);
#13=STYLED_ITEM('',(#285),#14);
#14=MANIFOLD_SOLID_BREP('Volumenk\X\F6rper9',#140);
#15=FACE_BOUND('',#37,.T.);
#16=FACE_BOUND('',#40,.T.);
#17=FACE_BOUND('',#43,.T.);
#18=FACE_BOUND('',#47,.T.);
#19=FACE_BOUND('',#49,.T.);
#20=PLANE('',#166);
#21=PLANE('',#171);
#22=PLANE('',#175);
#23=PLANE('',#181);
#24=PLANE('',#182);
#25=FACE_OUTER_BOUND('',#35,.T.);
#26=FACE_OUTER_BOUND('',#36,.T.);
#27=FACE_OUTER_BOUND('',#38,.T.);
#28=FACE_OUTER_BOUND('',#39,.T.);
#29=FACE_OUTER_BOUND('',#41,.T.);
#30=FACE_OUTER_BOUND('',#42,.T.);
#31=FACE_OUTER_BOUND('',#44,.T.);
#32=FACE_OUTER_BOUND('',#45,.T.);
#33=FACE_OUTER_BOUND('',#46,.T.);
#34=FACE_OUTER_BOUND('',#48,.T.);
#35=EDGE_LOOP('',(#95,#96,#97,#98));
#36=EDGE_LOOP('',(#99));
#37=EDGE_LOOP('',(#100));
#38=EDGE_LOOP('',(#101,#102,#103,#104));
#39=EDGE_LOOP('',(#105));
#40=EDGE_LOOP('',(#106));
#41=EDGE_LOOP('',(#107,#108,#109,#110));
#42=EDGE_LOOP('',(#111));
#43=EDGE_LOOP('',(#112));
#44=EDGE_LOOP('',(#113,#114,#115,#116));
#45=EDGE_LOOP('',(#117,#118,#119,#120));
#46=EDGE_LOOP('',(#121));
#47=EDGE_LOOP('',(#122));
#48=EDGE_LOOP('',(#123));
#49=EDGE_LOOP('',(#124));
#50=LINE('',#235,#55);
#51=LINE('',#244,#56);
#52=LINE('',#252,#57);
#53=LINE('',#259,#58);
#54=LINE('',#263,#59);
#55=VECTOR('',#189,13.5);
#56=VECTOR('',#200,10.);
#57=VECTOR('',#211,15.);
#58=VECTOR('',#220,14.19);
#59=VECTOR('',#225,17.5);
#60=CIRCLE('',#164,13.5);
#61=CIRCLE('',#165,13.5);
#62=CIRCLE('',#167,15.);
#63=CIRCLE('',#169,10.);
#64=CIRCLE('',#170,10.);
#65=CIRCLE('',#172,14.19);
#66=CIRCLE('',#174,15.);
#67=CIRCLE('',#176,17.5);
#68=CIRCLE('',#178,14.19);
#69=CIRCLE('',#180,17.5);
#70=VERTEX_POINT('',#232);
#71=VERTEX_POINT('',#234);
#72=VERTEX_POINT('',#238);
#73=VERTEX_POINT('',#241);
#74=VERTEX_POINT('',#243);
#75=VERTEX_POINT('',#247);
#76=VERTEX_POINT('',#250);
#77=VERTEX_POINT('',#254);
#78=VERTEX_POINT('',#257);
#79=VERTEX_POINT('',#261);
#80=EDGE_CURVE('',#70,#70,#60,.T.);
#81=EDGE_CURVE('',#70,#71,#50,.T.);
#82=EDGE_CURVE('',#71,#71,#61,.T.);
#83=EDGE_CURVE('',#72,#72,#62,.T.);
#84=EDGE_CURVE('',#73,#73,#63,.T.);
#85=EDGE_CURVE('',#73,#74,#51,.T.);
#86=EDGE_CURVE('',#74,#74,#64,.T.);
#87=EDGE_CURVE('',#75,#75,#65,.T.);
#88=EDGE_CURVE('',#76,#76,#66,.T.);
#89=EDGE_CURVE('',#76,#72,#52,.T.);
#90=EDGE_CURVE('',#77,#77,#67,.T.);
#91=EDGE_CURVE('',#78,#78,#68,.T.);
#92=EDGE_CURVE('',#78,#75,#53,.T.);
#93=EDGE_CURVE('',#79,#79,#69,.T.);
#94=EDGE_CURVE('',#79,#77,#54,.T.);
#95=ORIENTED_EDGE('',*,*,#80,.T.);
#96=ORIENTED_EDGE('',*,*,#81,.T.);
#97=ORIENTED_EDGE('',*,*,#82,.F.);
#98=ORIENTED_EDGE('',*,*,#81,.F.);
#99=ORIENTED_EDGE('',*,*,#83,.F.);
#100=ORIENTED_EDGE('',*,*,#82,.T.);
#101=ORIENTED_EDGE('',*,*,#84,.F.);
#102=ORIENTED_EDGE('',*,*,#85,.T.);
#103=ORIENTED_EDGE('',*,*,#86,.F.);
#104=ORIENTED_EDGE('',*,*,#85,.F.);
#105=ORIENTED_EDGE('',*,*,#87,.F.);
#106=ORIENTED_EDGE('',*,*,#84,.T.);
#107=ORIENTED_EDGE('',*,*,#88,.F.);
#108=ORIENTED_EDGE('',*,*,#89,.T.);
#109=ORIENTED_EDGE('',*,*,#83,.T.);
#110=ORIENTED_EDGE('',*,*,#89,.F.);
#111=ORIENTED_EDGE('',*,*,#90,.F.);
#112=ORIENTED_EDGE('',*,*,#80,.F.);
#113=ORIENTED_EDGE('',*,*,#91,.F.);
#114=ORIENTED_EDGE('',*,*,#92,.T.);
#115=ORIENTED_EDGE('',*,*,#87,.T.);
#116=ORIENTED_EDGE('',*,*,#92,.F.);
#117=ORIENTED_EDGE('',*,*,#93,.F.);
#118=ORIENTED_EDGE('',*,*,#94,.T.);
#119=ORIENTED_EDGE('',*,*,#90,.T.);
#120=ORIENTED_EDGE('',*,*,#94,.F.);
#121=ORIENTED_EDGE('',*,*,#93,.T.);
#122=ORIENTED_EDGE('',*,*,#91,.T.);
#123=ORIENTED_EDGE('',*,*,#88,.T.);
#124=ORIENTED_EDGE('',*,*,#86,.T.);
#125=CYLINDRICAL_SURFACE('',#163,13.5);
#126=CYLINDRICAL_SURFACE('',#168,10.);
#127=CYLINDRICAL_SURFACE('',#173,15.);
#128=CYLINDRICAL_SURFACE('',#177,14.19);
#129=CYLINDRICAL_SURFACE('',#179,17.5);
#130=ADVANCED_FACE('',(#25),#125,.T.);
#131=ADVANCED_FACE('',(#26,#15),#20,.F.);
#132=ADVANCED_FACE('',(#27),#126,.F.);
#133=ADVANCED_FACE('',(#28,#16),#21,.F.);
#134=ADVANCED_FACE('',(#29),#127,.T.);
#135=ADVANCED_FACE('',(#30,#17),#22,.T.);
#136=ADVANCED_FACE('',(#31),#128,.F.);
#137=ADVANCED_FACE('',(#32),#129,.T.);
#138=ADVANCED_FACE('',(#33,#18),#23,.T.);
#139=ADVANCED_FACE('',(#34,#19),#24,.F.);
#140=CLOSED_SHELL('',(#130,#131,#132,#133,#134,#135,#136,#137,#138,#139));
#141=DERIVED_UNIT_ELEMENT(#144,1.);
#142=DERIVED_UNIT_ELEMENT(#271,-3.);
#143=DIMENSIONAL_EXPONENTS(1.,0.,0.,0.,0.,0.,0.);
#144=(
CONVERSION_BASED_UNIT('gram',#146)
MASS_UNIT()
NAMED_UNIT(#143)
);
#145=(
MASS_UNIT()
NAMED_UNIT(*)
SI_UNIT(.KILO.,.GRAM.)
);
#146=MASS_MEASURE_WITH_UNIT(MASS_MEASURE(0.001),#145);
#147=DERIVED_UNIT((#141,#142));
#148=MEASURE_REPRESENTATION_ITEM('density measure',
POSITIVE_RATIO_MEASURE(2.7),#147);
#149=PROPERTY_DEFINITION_REPRESENTATION(#154,#151);
#150=PROPERTY_DEFINITION_REPRESENTATION(#155,#152);
#151=REPRESENTATION('material name',(#153),#268);
#152=REPRESENTATION('density',(#148),#268);
#153=DESCRIPTIVE_REPRESENTATION_ITEM('Aluminium 6061','Aluminium 6061');
#154=PROPERTY_DEFINITION('material property','material name',#278);
#155=PROPERTY_DEFINITION('material property','density of part',#278);
#156=DATE_TIME_ROLE('creation_date');
#157=APPLIED_DATE_AND_TIME_ASSIGNMENT(#158,#156,(#278));
#158=DATE_AND_TIME(#159,#160);
#159=CALENDAR_DATE(2021,25,8);
#160=LOCAL_TIME(0,0,0.,#161);
#161=COORDINATED_UNIVERSAL_TIME_OFFSET(0,0,.BEHIND.);
#162=AXIS2_PLACEMENT_3D('placement',#230,#183,#184);
#163=AXIS2_PLACEMENT_3D('',#231,#185,#186);
#164=AXIS2_PLACEMENT_3D('',#233,#187,#188);
#165=AXIS2_PLACEMENT_3D('',#236,#190,#191);
#166=AXIS2_PLACEMENT_3D('',#237,#192,#193);
#167=AXIS2_PLACEMENT_3D('',#239,#194,#195);
#168=AXIS2_PLACEMENT_3D('',#240,#196,#197);
#169=AXIS2_PLACEMENT_3D('',#242,#198,#199);
#170=AXIS2_PLACEMENT_3D('',#245,#201,#202);
#171=AXIS2_PLACEMENT_3D('',#246,#203,#204);
#172=AXIS2_PLACEMENT_3D('',#248,#205,#206);
#173=AXIS2_PLACEMENT_3D('',#249,#207,#208);
#174=AXIS2_PLACEMENT_3D('',#251,#209,#210);
#175=AXIS2_PLACEMENT_3D('',#253,#212,#213);
#176=AXIS2_PLACEMENT_3D('',#255,#214,#215);
#177=AXIS2_PLACEMENT_3D('',#256,#216,#217);
#178=AXIS2_PLACEMENT_3D('',#258,#218,#219);
#179=AXIS2_PLACEMENT_3D('',#260,#221,#222);
#180=AXIS2_PLACEMENT_3D('',#262,#223,#224);
#181=AXIS2_PLACEMENT_3D('',#264,#226,#227);
#182=AXIS2_PLACEMENT_3D('',#265,#228,#229);
#183=DIRECTION('axis',(0.,0.,1.));
#184=DIRECTION('refdir',(1.,0.,0.));
#185=DIRECTION('center_axis',(0.,0.,-1.));
#186=DIRECTION('ref_axis',(1.,0.,0.));
#187=DIRECTION('center_axis',(0.,0.,-1.));
#188=DIRECTION('ref_axis',(1.,0.,0.));
#189=DIRECTION('',(0.,0.,-1.));
#190=DIRECTION('center_axis',(0.,0.,-1.));
#191=DIRECTION('ref_axis',(1.,0.,0.));
#192=DIRECTION('center_axis',(0.,0.,-1.));
#193=DIRECTION('ref_axis',(-1.,0.,0.));
#194=DIRECTION('center_axis',(0.,0.,-1.));
#195=DIRECTION('ref_axis',(1.,0.,0.));
#196=DIRECTION('center_axis',(0.,0.,1.));
#197=DIRECTION('ref_axis',(1.,0.,0.));
#198=DIRECTION('center_axis',(0.,0.,-1.));
#199=DIRECTION('ref_axis',(1.,0.,0.));
#200=DIRECTION('',(0.,0.,-1.));
#201=DIRECTION('center_axis',(0.,0.,1.));
#202=DIRECTION('ref_axis',(1.,0.,0.));
#203=DIRECTION('center_axis',(0.,0.,-1.));
#204=DIRECTION('ref_axis',(-1.,0.,0.));
#205=DIRECTION('center_axis',(0.,0.,-1.));
#206=DIRECTION('ref_axis',(-1.,0.,0.));
#207=DIRECTION('center_axis',(0.,0.,1.));
#208=DIRECTION('ref_axis',(1.,0.,0.));
#209=DIRECTION('center_axis',(0.,0.,-1.));
#210=DIRECTION('ref_axis',(1.,0.,0.));
#211=DIRECTION('',(0.,0.,1.));
#212=DIRECTION('center_axis',(0.,0.,-1.));
#213=DIRECTION('ref_axis',(-1.,0.,0.));
#214=DIRECTION('center_axis',(0.,0.,1.));
#215=DIRECTION('ref_axis',(1.,0.,0.));
#216=DIRECTION('center_axis',(0.,0.,1.));
#217=DIRECTION('ref_axis',(-1.,0.,0.));
#218=DIRECTION('center_axis',(0.,0.,-1.));
#219=DIRECTION('ref_axis',(-1.,0.,0.));
#220=DIRECTION('',(0.,0.,-1.));
#221=DIRECTION('center_axis',(0.,0.,1.));
#222=DIRECTION('ref_axis',(1.,0.,0.));
#223=DIRECTION('center_axis',(0.,0.,1.));
#224=DIRECTION('ref_axis',(1.,0.,0.));
#225=DIRECTION('',(0.,0.,-1.));
#226=DIRECTION('center_axis',(0.,0.,1.));
#227=DIRECTION('ref_axis',(1.,0.,0.));
#228=DIRECTION('center_axis',(0.,0.,1.));
#229=DIRECTION('ref_axis',(1.,0.,0.));
#230=CARTESIAN_POINT('',(0.,0.,0.));
#231=CARTESIAN_POINT('Origin',(0.,0.,18.75));
#232=CARTESIAN_POINT('',(-13.5,1.65327317884893E-15,20.));
#233=CARTESIAN_POINT('Origin',(0.,0.,20.));
#234=CARTESIAN_POINT('',(-13.5,1.65327317884893E-15,17.5));
#235=CARTESIAN_POINT('',(-13.5,1.65327317884893E-15,18.75));
#236=CARTESIAN_POINT('Origin',(0.,0.,17.5));
#237=CARTESIAN_POINT('Origin',(13.5,0.,17.5));
#238=CARTESIAN_POINT('',(-15.,-1.83697019872103E-15,17.5));
#239=CARTESIAN_POINT('Origin',(0.,0.,17.5));
#240=CARTESIAN_POINT('Origin',(0.,0.,0.));
#241=CARTESIAN_POINT('',(-10.,1.22464679914735E-15,392.));
#242=CARTESIAN_POINT('Origin',(0.,0.,392.));
#243=CARTESIAN_POINT('',(-10.,1.22464679914735E-15,0.));
#244=CARTESIAN_POINT('',(-10.,-1.22464679914735E-15,0.));
#245=CARTESIAN_POINT('Origin',(0.,0.,0.));
#246=CARTESIAN_POINT('Origin',(0.,0.,392.));
#247=CARTESIAN_POINT('',(14.19,1.73777380799009E-15,392.));
#248=CARTESIAN_POINT('Origin',(0.,0.,392.));
#249=CARTESIAN_POINT('Origin',(0.,0.,0.));
#250=CARTESIAN_POINT('',(-15.,1.83697019872103E-15,0.));
#251=CARTESIAN_POINT('Origin',(0.,0.,0.));
#252=CARTESIAN_POINT('',(-15.,-1.83697019872103E-15,0.));
#253=CARTESIAN_POINT('Origin',(0.,0.,20.));
#254=CARTESIAN_POINT('',(-17.5,0.,20.));
#255=CARTESIAN_POINT('Origin',(0.,0.,20.));
#256=CARTESIAN_POINT('Origin',(0.,0.,0.));
#257=CARTESIAN_POINT('',(14.19,1.73777380799009E-15,420.));
#258=CARTESIAN_POINT('Origin',(0.,0.,420.));
#259=CARTESIAN_POINT('',(14.19,1.73777380799009E-15,0.));
#260=CARTESIAN_POINT('Origin',(0.,0.,0.));
#261=CARTESIAN_POINT('',(-17.5,-2.14313189850787E-15,420.));
#262=CARTESIAN_POINT('Origin',(0.,0.,420.));
#263=CARTESIAN_POINT('',(-17.5,-2.14313189850787E-15,0.));
#264=CARTESIAN_POINT('Origin',(0.,0.,420.));
#265=CARTESIAN_POINT('Origin',(0.,0.,0.));
#266=UNCERTAINTY_MEASURE_WITH_UNIT(LENGTH_MEASURE(0.01),#270,
'DISTANCE_ACCURACY_VALUE',
'Maximum model space distance between geometric entities at asserted c
onnectivities');
#267=UNCERTAINTY_MEASURE_WITH_UNIT(LENGTH_MEASURE(0.01),#270,
'DISTANCE_ACCURACY_VALUE',
'Maximum model space distance between geometric entities at asserted c
onnectivities');
#268=(
GEOMETRIC_REPRESENTATION_CONTEXT(3)
GLOBAL_UNCERTAINTY_ASSIGNED_CONTEXT((#266))
GLOBAL_UNIT_ASSIGNED_CONTEXT((#270,#272,#273))
REPRESENTATION_CONTEXT('','3D')
);
#269=(
GEOMETRIC_REPRESENTATION_CONTEXT(3)
GLOBAL_UNCERTAINTY_ASSIGNED_CONTEXT((#267))
GLOBAL_UNIT_ASSIGNED_CONTEXT((#270,#272,#273))
REPRESENTATION_CONTEXT('','3D')
);
#270=(
LENGTH_UNIT()
NAMED_UNIT(*)
SI_UNIT(.MILLI.,.METRE.)
);
#271=(
LENGTH_UNIT()
NAMED_UNIT(*)
SI_UNIT(.CENTI.,.METRE.)
);
#272=(
NAMED_UNIT(*)
PLANE_ANGLE_UNIT()
SI_UNIT($,.RADIAN.)
);
#273=(
NAMED_UNIT(*)
SI_UNIT($,.STERADIAN.)
SOLID_ANGLE_UNIT()
);
#274=SHAPE_DEFINITION_REPRESENTATION(#275,#276);
#275=PRODUCT_DEFINITION_SHAPE('',$,#278);
#276=SHAPE_REPRESENTATION('',(#162),#268);
#277=PRODUCT_DEFINITION_CONTEXT('part definition',#282,'design');
#278=PRODUCT_DEFINITION('MontageRohr 400mm','MontageRohr 400mm',#279,#277);
#279=PRODUCT_DEFINITION_FORMATION('',$,#284);
#280=PRODUCT_RELATED_PRODUCT_CATEGORY('MontageRohr 400mm',
'MontageRohr 400mm',(#284));
#281=APPLICATION_PROTOCOL_DEFINITION('international standard',
'automotive_design',2009,#282);
#282=APPLICATION_CONTEXT(
'Core Data for Automotive Mechanical Design Process');
#283=PRODUCT_CONTEXT('part definition',#282,'mechanical');
#284=PRODUCT('MontageRohr 400mm','MontageRohr 400mm','Mounting Pipe',(#283));
#285=PRESENTATION_STYLE_ASSIGNMENT((#286));
#286=SURFACE_STYLE_USAGE(.BOTH.,#289);
#287=SURFACE_STYLE_RENDERING_WITH_PROPERTIES($,#293,(#288));
#288=SURFACE_STYLE_TRANSPARENT(0.);
#289=SURFACE_SIDE_STYLE('',(#290,#287));
#290=SURFACE_STYLE_FILL_AREA(#291);
#291=FILL_AREA_STYLE('',(#292));
#292=FILL_AREA_STYLE_COLOUR('',#293);
#293=COLOUR_RGB('',0.996078431372549,0.996078431372549,1.);
ENDSEC;
END-ISO-10303-21;
