ISO-10303-21;
HEADER;
/* Generated by software containing ST-Developer
 * from STEP Tools, Inc. (www.steptools.com) 
 */

FILE_DESCRIPTION(
/* description */ ('Mounting Pipe'),
/* implementation_level */ '2;1');

FILE_NAME(
/* name */ 
'G:\\Entwicklung\\Zeichnungen\\3D\\parts - step iges\\SBT-VR-100-M30.s
tp',
/* time_stamp */ '2022-01-20T08:39:26+01:00',
/* author */ ('S. Sandt'),
/* organization */ ('di-soric GmbH & Co. KG'),
/* preprocessor_version */ 'ST-DEVELOPER v18.1',
/* originating_system */ 'Autodesk Inventor 2021',
/* authorisation */ '');

FILE_SCHEMA (('AUTOMOTIVE_DESIGN { 1 0 10303 214 3 1 1 }'));
ENDSEC;

DATA;
#10=MECHANICAL_DESIGN_GEOMETRIC_PRESENTATION_REPRESENTATION('',(#13),#266);
#11=SHAPE_REPRESENTATION_RELATIONSHIP('SRR','None',#273,#12);
#12=ADVANCED_BREP_SHAPE_REPRESENTATION('',(#14),#265);
#13=STYLED_ITEM('',(#282),#14);
#14=MANIFOLD_SOLID_BREP('Volumenk\X\F6rper9',#140);
#15=FACE_BOUND('',#37,.T.);
#16=FACE_BOUND('',#40,.T.);
#17=FACE_BOUND('',#43,.T.);
#18=FACE_BOUND('',#47,.T.);
#19=FACE_BOUND('',#49,.T.);
#20=PLANE('',#163);
#21=PLANE('',#168);
#22=PLANE('',#172);
#23=PLANE('',#178);
#24=PLANE('',#179);
#25=FACE_OUTER_BOUND('',#35,.T.);
#26=FACE_OUTER_BOUND('',#36,.T.);
#27=FACE_OUTER_BOUND('',#38,.T.);
#28=FACE_OUTER_BOUND('',#39,.T.);
#29=FACE_OUTER_BOUND('',#41,.T.);
#30=FACE_OUTER_BOUND('',#42,.T.);
#31=FACE_OUTER_BOUND('',#44,.T.);
#32=FACE_OUTER_BOUND('',#45,.T.);
#33=FACE_OUTER_BOUND('',#46,.T.);
#34=FACE_OUTER_BOUND('',#48,.T.);
#35=EDGE_LOOP('',(#95,#96,#97,#98));
#36=EDGE_LOOP('',(#99));
#37=EDGE_LOOP('',(#100));
#38=EDGE_LOOP('',(#101,#102,#103,#104));
#39=EDGE_LOOP('',(#105));
#40=EDGE_LOOP('',(#106));
#41=EDGE_LOOP('',(#107,#108,#109,#110));
#42=EDGE_LOOP('',(#111));
#43=EDGE_LOOP('',(#112));
#44=EDGE_LOOP('',(#113,#114,#115,#116));
#45=EDGE_LOOP('',(#117,#118,#119,#120));
#46=EDGE_LOOP('',(#121));
#47=EDGE_LOOP('',(#122));
#48=EDGE_LOOP('',(#123));
#49=EDGE_LOOP('',(#124));
#50=LINE('',#232,#55);
#51=LINE('',#241,#56);
#52=LINE('',#249,#57);
#53=LINE('',#256,#58);
#54=LINE('',#260,#59);
#55=VECTOR('',#186,13.5);
#56=VECTOR('',#197,10.);
#57=VECTOR('',#208,15.);
#58=VECTOR('',#217,14.19);
#59=VECTOR('',#222,17.5);
#60=CIRCLE('',#161,13.5);
#61=CIRCLE('',#162,13.5);
#62=CIRCLE('',#164,15.);
#63=CIRCLE('',#166,10.);
#64=CIRCLE('',#167,10.);
#65=CIRCLE('',#169,14.19);
#66=CIRCLE('',#171,15.);
#67=CIRCLE('',#173,17.5);
#68=CIRCLE('',#175,14.19);
#69=CIRCLE('',#177,17.5);
#70=VERTEX_POINT('',#229);
#71=VERTEX_POINT('',#231);
#72=VERTEX_POINT('',#235);
#73=VERTEX_POINT('',#238);
#74=VERTEX_POINT('',#240);
#75=VERTEX_POINT('',#244);
#76=VERTEX_POINT('',#247);
#77=VERTEX_POINT('',#251);
#78=VERTEX_POINT('',#254);
#79=VERTEX_POINT('',#258);
#80=EDGE_CURVE('',#70,#70,#60,.T.);
#81=EDGE_CURVE('',#70,#71,#50,.T.);
#82=EDGE_CURVE('',#71,#71,#61,.T.);
#83=EDGE_CURVE('',#72,#72,#62,.T.);
#84=EDGE_CURVE('',#73,#73,#63,.T.);
#85=EDGE_CURVE('',#73,#74,#51,.T.);
#86=EDGE_CURVE('',#74,#74,#64,.T.);
#87=EDGE_CURVE('',#75,#75,#65,.T.);
#88=EDGE_CURVE('',#76,#76,#66,.T.);
#89=EDGE_CURVE('',#76,#72,#52,.T.);
#90=EDGE_CURVE('',#77,#77,#67,.T.);
#91=EDGE_CURVE('',#78,#78,#68,.T.);
#92=EDGE_CURVE('',#78,#75,#53,.T.);
#93=EDGE_CURVE('',#79,#79,#69,.T.);
#94=EDGE_CURVE('',#79,#77,#54,.T.);
#95=ORIENTED_EDGE('',*,*,#80,.T.);
#96=ORIENTED_EDGE('',*,*,#81,.T.);
#97=ORIENTED_EDGE('',*,*,#82,.F.);
#98=ORIENTED_EDGE('',*,*,#81,.F.);
#99=ORIENTED_EDGE('',*,*,#83,.F.);
#100=ORIENTED_EDGE('',*,*,#82,.T.);
#101=ORIENTED_EDGE('',*,*,#84,.F.);
#102=ORIENTED_EDGE('',*,*,#85,.T.);
#103=ORIENTED_EDGE('',*,*,#86,.F.);
#104=ORIENTED_EDGE('',*,*,#85,.F.);
#105=ORIENTED_EDGE('',*,*,#87,.F.);
#106=ORIENTED_EDGE('',*,*,#84,.T.);
#107=ORIENTED_EDGE('',*,*,#88,.F.);
#108=ORIENTED_EDGE('',*,*,#89,.T.);
#109=ORIENTED_EDGE('',*,*,#83,.T.);
#110=ORIENTED_EDGE('',*,*,#89,.F.);
#111=ORIENTED_EDGE('',*,*,#90,.F.);
#112=ORIENTED_EDGE('',*,*,#80,.F.);
#113=ORIENTED_EDGE('',*,*,#91,.F.);
#114=ORIENTED_EDGE('',*,*,#92,.T.);
#115=ORIENTED_EDGE('',*,*,#87,.T.);
#116=ORIENTED_EDGE('',*,*,#92,.F.);
#117=ORIENTED_EDGE('',*,*,#93,.F.);
#118=ORIENTED_EDGE('',*,*,#94,.T.);
#119=ORIENTED_EDGE('',*,*,#90,.T.);
#120=ORIENTED_EDGE('',*,*,#94,.F.);
#121=ORIENTED_EDGE('',*,*,#93,.T.);
#122=ORIENTED_EDGE('',*,*,#91,.T.);
#123=ORIENTED_EDGE('',*,*,#88,.T.);
#124=ORIENTED_EDGE('',*,*,#86,.T.);
#125=CYLINDRICAL_SURFACE('',#160,13.5);
#126=CYLINDRICAL_SURFACE('',#165,10.);
#127=CYLINDRICAL_SURFACE('',#170,15.);
#128=CYLINDRICAL_SURFACE('',#174,14.19);
#129=CYLINDRICAL_SURFACE('',#176,17.5);
#130=ADVANCED_FACE('',(#25),#125,.T.);
#131=ADVANCED_FACE('',(#26,#15),#20,.F.);
#132=ADVANCED_FACE('',(#27),#126,.F.);
#133=ADVANCED_FACE('',(#28,#16),#21,.F.);
#134=ADVANCED_FACE('',(#29),#127,.T.);
#135=ADVANCED_FACE('',(#30,#17),#22,.T.);
#136=ADVANCED_FACE('',(#31),#128,.F.);
#137=ADVANCED_FACE('',(#32),#129,.T.);
#138=ADVANCED_FACE('',(#33,#18),#23,.T.);
#139=ADVANCED_FACE('',(#34,#19),#24,.F.);
#140=CLOSED_SHELL('',(#130,#131,#132,#133,#134,#135,#136,#137,#138,#139));
#141=DERIVED_UNIT_ELEMENT(#143,1.);
#142=DERIVED_UNIT_ELEMENT(#268,-3.);
#143=(
MASS_UNIT()
NAMED_UNIT(*)
SI_UNIT($,.GRAM.)
);
#144=DERIVED_UNIT((#141,#142));
#145=MEASURE_REPRESENTATION_ITEM('density measure',
POSITIVE_RATIO_MEASURE(2.7),#144);
#146=PROPERTY_DEFINITION_REPRESENTATION(#151,#148);
#147=PROPERTY_DEFINITION_REPRESENTATION(#152,#149);
#148=REPRESENTATION('material name',(#150),#265);
#149=REPRESENTATION('density',(#145),#265);
#150=DESCRIPTIVE_REPRESENTATION_ITEM('Aluminium 6061','Aluminium 6061');
#151=PROPERTY_DEFINITION('material property','material name',#275);
#152=PROPERTY_DEFINITION('material property','density of part',#275);
#153=DATE_TIME_ROLE('creation_date');
#154=APPLIED_DATE_AND_TIME_ASSIGNMENT(#155,#153,(#275));
#155=DATE_AND_TIME(#156,#157);
#156=CALENDAR_DATE(2021,25,8);
#157=LOCAL_TIME(0,0,0.,#158);
#158=COORDINATED_UNIVERSAL_TIME_OFFSET(0,0,.BEHIND.);
#159=AXIS2_PLACEMENT_3D('placement',#227,#180,#181);
#160=AXIS2_PLACEMENT_3D('',#228,#182,#183);
#161=AXIS2_PLACEMENT_3D('',#230,#184,#185);
#162=AXIS2_PLACEMENT_3D('',#233,#187,#188);
#163=AXIS2_PLACEMENT_3D('',#234,#189,#190);
#164=AXIS2_PLACEMENT_3D('',#236,#191,#192);
#165=AXIS2_PLACEMENT_3D('',#237,#193,#194);
#166=AXIS2_PLACEMENT_3D('',#239,#195,#196);
#167=AXIS2_PLACEMENT_3D('',#242,#198,#199);
#168=AXIS2_PLACEMENT_3D('',#243,#200,#201);
#169=AXIS2_PLACEMENT_3D('',#245,#202,#203);
#170=AXIS2_PLACEMENT_3D('',#246,#204,#205);
#171=AXIS2_PLACEMENT_3D('',#248,#206,#207);
#172=AXIS2_PLACEMENT_3D('',#250,#209,#210);
#173=AXIS2_PLACEMENT_3D('',#252,#211,#212);
#174=AXIS2_PLACEMENT_3D('',#253,#213,#214);
#175=AXIS2_PLACEMENT_3D('',#255,#215,#216);
#176=AXIS2_PLACEMENT_3D('',#257,#218,#219);
#177=AXIS2_PLACEMENT_3D('',#259,#220,#221);
#178=AXIS2_PLACEMENT_3D('',#261,#223,#224);
#179=AXIS2_PLACEMENT_3D('',#262,#225,#226);
#180=DIRECTION('axis',(0.,0.,1.));
#181=DIRECTION('refdir',(1.,0.,0.));
#182=DIRECTION('center_axis',(0.,0.,-1.));
#183=DIRECTION('ref_axis',(1.,0.,0.));
#184=DIRECTION('center_axis',(0.,0.,-1.));
#185=DIRECTION('ref_axis',(1.,0.,0.));
#186=DIRECTION('',(0.,0.,-1.));
#187=DIRECTION('center_axis',(0.,0.,-1.));
#188=DIRECTION('ref_axis',(1.,0.,0.));
#189=DIRECTION('center_axis',(0.,0.,-1.));
#190=DIRECTION('ref_axis',(-1.,0.,0.));
#191=DIRECTION('center_axis',(0.,0.,-1.));
#192=DIRECTION('ref_axis',(1.,0.,0.));
#193=DIRECTION('center_axis',(0.,0.,1.));
#194=DIRECTION('ref_axis',(1.,0.,0.));
#195=DIRECTION('center_axis',(0.,0.,-1.));
#196=DIRECTION('ref_axis',(1.,0.,0.));
#197=DIRECTION('',(0.,0.,-1.));
#198=DIRECTION('center_axis',(0.,0.,1.));
#199=DIRECTION('ref_axis',(1.,0.,0.));
#200=DIRECTION('center_axis',(0.,0.,-1.));
#201=DIRECTION('ref_axis',(-1.,0.,0.));
#202=DIRECTION('center_axis',(0.,0.,-1.));
#203=DIRECTION('ref_axis',(-1.,0.,0.));
#204=DIRECTION('center_axis',(0.,0.,1.));
#205=DIRECTION('ref_axis',(1.,0.,0.));
#206=DIRECTION('center_axis',(0.,0.,-1.));
#207=DIRECTION('ref_axis',(1.,0.,0.));
#208=DIRECTION('',(0.,0.,1.));
#209=DIRECTION('center_axis',(0.,0.,-1.));
#210=DIRECTION('ref_axis',(-1.,0.,0.));
#211=DIRECTION('center_axis',(0.,0.,1.));
#212=DIRECTION('ref_axis',(1.,0.,0.));
#213=DIRECTION('center_axis',(0.,0.,1.));
#214=DIRECTION('ref_axis',(-1.,0.,0.));
#215=DIRECTION('center_axis',(0.,0.,-1.));
#216=DIRECTION('ref_axis',(-1.,0.,0.));
#217=DIRECTION('',(0.,0.,-1.));
#218=DIRECTION('center_axis',(0.,0.,1.));
#219=DIRECTION('ref_axis',(1.,0.,0.));
#220=DIRECTION('center_axis',(0.,0.,1.));
#221=DIRECTION('ref_axis',(1.,0.,0.));
#222=DIRECTION('',(0.,0.,-1.));
#223=DIRECTION('center_axis',(0.,0.,1.));
#224=DIRECTION('ref_axis',(1.,0.,0.));
#225=DIRECTION('center_axis',(0.,0.,1.));
#226=DIRECTION('ref_axis',(1.,0.,0.));
#227=CARTESIAN_POINT('',(0.,0.,0.));
#228=CARTESIAN_POINT('Origin',(0.,0.,18.75));
#229=CARTESIAN_POINT('',(-13.5,1.65327317884893E-15,20.));
#230=CARTESIAN_POINT('Origin',(0.,0.,20.));
#231=CARTESIAN_POINT('',(-13.5,1.65327317884893E-15,17.5));
#232=CARTESIAN_POINT('',(-13.5,1.65327317884893E-15,18.75));
#233=CARTESIAN_POINT('Origin',(0.,0.,17.5));
#234=CARTESIAN_POINT('Origin',(13.5,0.,17.5));
#235=CARTESIAN_POINT('',(-15.,-1.83697019872103E-15,17.5));
#236=CARTESIAN_POINT('Origin',(0.,0.,17.5));
#237=CARTESIAN_POINT('Origin',(0.,0.,0.));
#238=CARTESIAN_POINT('',(-10.,1.22464679914735E-15,92.));
#239=CARTESIAN_POINT('Origin',(0.,0.,92.));
#240=CARTESIAN_POINT('',(-10.,1.22464679914735E-15,0.));
#241=CARTESIAN_POINT('',(-10.,-1.22464679914735E-15,0.));
#242=CARTESIAN_POINT('Origin',(0.,0.,0.));
#243=CARTESIAN_POINT('Origin',(0.,0.,92.));
#244=CARTESIAN_POINT('',(14.19,1.73777380799009E-15,92.));
#245=CARTESIAN_POINT('Origin',(0.,0.,92.));
#246=CARTESIAN_POINT('Origin',(0.,0.,0.));
#247=CARTESIAN_POINT('',(-15.,1.83697019872103E-15,0.));
#248=CARTESIAN_POINT('Origin',(0.,0.,0.));
#249=CARTESIAN_POINT('',(-15.,-1.83697019872103E-15,0.));
#250=CARTESIAN_POINT('Origin',(0.,0.,20.));
#251=CARTESIAN_POINT('',(-17.5,0.,20.));
#252=CARTESIAN_POINT('Origin',(0.,0.,20.));
#253=CARTESIAN_POINT('Origin',(0.,0.,0.));
#254=CARTESIAN_POINT('',(14.19,1.73777380799009E-15,120.));
#255=CARTESIAN_POINT('Origin',(0.,0.,120.));
#256=CARTESIAN_POINT('',(14.19,1.73777380799009E-15,0.));
#257=CARTESIAN_POINT('Origin',(0.,0.,0.));
#258=CARTESIAN_POINT('',(-17.5,-2.14313189850787E-15,120.));
#259=CARTESIAN_POINT('Origin',(0.,0.,120.));
#260=CARTESIAN_POINT('',(-17.5,-2.14313189850787E-15,0.));
#261=CARTESIAN_POINT('Origin',(0.,0.,120.));
#262=CARTESIAN_POINT('Origin',(0.,0.,0.));
#263=UNCERTAINTY_MEASURE_WITH_UNIT(LENGTH_MEASURE(0.01),#267,
'DISTANCE_ACCURACY_VALUE',
'Maximum model space distance between geometric entities at asserted c
onnectivities');
#264=UNCERTAINTY_MEASURE_WITH_UNIT(LENGTH_MEASURE(0.01),#267,
'DISTANCE_ACCURACY_VALUE',
'Maximum model space distance between geometric entities at asserted c
onnectivities');
#265=(
GEOMETRIC_REPRESENTATION_CONTEXT(3)
GLOBAL_UNCERTAINTY_ASSIGNED_CONTEXT((#263))
GLOBAL_UNIT_ASSIGNED_CONTEXT((#267,#269,#270))
REPRESENTATION_CONTEXT('','3D')
);
#266=(
GEOMETRIC_REPRESENTATION_CONTEXT(3)
GLOBAL_UNCERTAINTY_ASSIGNED_CONTEXT((#264))
GLOBAL_UNIT_ASSIGNED_CONTEXT((#267,#269,#270))
REPRESENTATION_CONTEXT('','3D')
);
#267=(
LENGTH_UNIT()
NAMED_UNIT(*)
SI_UNIT(.MILLI.,.METRE.)
);
#268=(
LENGTH_UNIT()
NAMED_UNIT(*)
SI_UNIT(.CENTI.,.METRE.)
);
#269=(
NAMED_UNIT(*)
PLANE_ANGLE_UNIT()
SI_UNIT($,.RADIAN.)
);
#270=(
NAMED_UNIT(*)
SI_UNIT($,.STERADIAN.)
SOLID_ANGLE_UNIT()
);
#271=SHAPE_DEFINITION_REPRESENTATION(#272,#273);
#272=PRODUCT_DEFINITION_SHAPE('',$,#275);
#273=SHAPE_REPRESENTATION('',(#159),#265);
#274=PRODUCT_DEFINITION_CONTEXT('part definition',#279,'design');
#275=PRODUCT_DEFINITION('MontageRohr 100mm','MontageRohr 100mm',#276,#274);
#276=PRODUCT_DEFINITION_FORMATION('',$,#281);
#277=PRODUCT_RELATED_PRODUCT_CATEGORY('MontageRohr 100mm',
'MontageRohr 100mm',(#281));
#278=APPLICATION_PROTOCOL_DEFINITION('international standard',
'automotive_design',2009,#279);
#279=APPLICATION_CONTEXT(
'Core Data for Automotive Mechanical Design Process');
#280=PRODUCT_CONTEXT('part definition',#279,'mechanical');
#281=PRODUCT('MontageRohr 100mm','MontageRohr 100mm','Mounting Pipe',(#280));
#282=PRESENTATION_STYLE_ASSIGNMENT((#283));
#283=SURFACE_STYLE_USAGE(.BOTH.,#286);
#284=SURFACE_STYLE_RENDERING_WITH_PROPERTIES($,#290,(#285));
#285=SURFACE_STYLE_TRANSPARENT(0.);
#286=SURFACE_SIDE_STYLE('',(#287,#284));
#287=SURFACE_STYLE_FILL_AREA(#288);
#288=FILL_AREA_STYLE('',(#289));
#289=FILL_AREA_STYLE_COLOUR('',#290);
#290=COLOUR_RGB('',0.996078431372549,0.996078431372549,1.);
ENDSEC;
END-ISO-10303-21;
