ISO-10303-21;
HEADER;
/****************************************************************
 * Generated by software with PDE/Lib inside                    *
 * PDElib Version 4.0, created Tue Sep 21 13:54:59 EDT 2004     *
 * International Technegroup Inc. (www.iti-oh.com)              *
 ****************************************************************/
FILE_DESCRIPTION((''),'2;1');
FILE_NAME('C:\\Arbeitsordner\\CAD\\Inventor\\Internet\\11\\R84.stp','2008-05-20T17:01:09',('User'),(''),'Autodesk Inventor 10','Autodesk Inventor 10','');
FILE_SCHEMA(('AUTOMOTIVE_DESIGN { 1 0 10303 214 1 1 1 1 }'));
ENDSEC;
DATA;
#5=APPLICATION_CONTEXT('automotive design');
#6=APPLICATION_PROTOCOL_DEFINITION('Draft International Standard','automotive_design',1998,#5);
#7=PRODUCT_CONTEXT('None',#5,'mechanical');
#8=PRODUCT('R84','R84','None',(#7));
#9=PRODUCT_RELATED_PRODUCT_CATEGORY('part','description',(#8));
#10=PRODUCT_DEFINITION_FORMATION('None','None',#8);
#11=PRODUCT_DEFINITION_CONTEXT('part definition',#5,'design');
#12=PRODUCT_DEFINITION('None','None',#10,#11);
#18=(NAMED_UNIT(*)PLANE_ANGLE_UNIT()SI_UNIT($,.RADIAN.));
#19=DIMENSIONAL_EXPONENTS(0.0,0.0,0.0,0.0,0.0,0.0,0.0);
#20=PLANE_ANGLE_MEASURE_WITH_UNIT(PLANE_ANGLE_MEASURE(0.017453292500000),#18);
#24=(CONVERSION_BASED_UNIT('DEGREE',#20)NAMED_UNIT(#19)PLANE_ANGLE_UNIT());
#28=(NAMED_UNIT(*)SI_UNIT($,.STERADIAN.)SOLID_ANGLE_UNIT());
#32=(LENGTH_UNIT()NAMED_UNIT(*)SI_UNIT(.MILLI.,.METRE.));
#34=UNCERTAINTY_MEASURE_WITH_UNIT(LENGTH_MEASURE(0.010000000000000),#32,'DISTANCE_ACCURACY_VALUE','');
#36=(GEOMETRIC_REPRESENTATION_CONTEXT(3)GLOBAL_UNCERTAINTY_ASSIGNED_CONTEXT((#34))GLOBAL_UNIT_ASSIGNED_CONTEXT((#24,#28,#32))REPRESENTATION_CONTEXT('None','None'));
#37=AXIS2_PLACEMENT_3D('',#38,#39,#40);
#38=CARTESIAN_POINT('',(0.0,0.0,0.0));
#39=DIRECTION('',(0.0,0.0,1.0));
#40=DIRECTION('',(1.0,0.0,0.0));
#41=SHAPE_REPRESENTATION('',(#37),#36);
#42=PRODUCT_DEFINITION_SHAPE('','',#12);
#43=SHAPE_DEFINITION_REPRESENTATION(#42,#41);
#44=CARTESIAN_POINT('',(0.0,0.0,5.533974596215568));
#45=DIRECTION('',(0.0,0.0,-1.0));
#46=DIRECTION('',(-1.0,0.0,0.0));
#47=AXIS2_PLACEMENT_3D('',#44,#45,#46);
#48=CONICAL_SURFACE('',#47,41.500000000000000,14.999999999999995);
#49=CARTESIAN_POINT('',(41.000000000000007,-5.020886E-015,7.400000000000001));
#50=VERTEX_POINT('',#49);
#51=CARTESIAN_POINT('',(0.0,0.0,7.400000000000001));
#52=DIRECTION('',(0.0,0.0,-1.0));
#53=DIRECTION('',(-1.0,0.0,0.0));
#54=AXIS2_PLACEMENT_3D('',#51,#52,#53);
#55=CIRCLE('',#54,41.000000000000007);
#56=EDGE_CURVE('',#50,#50,#55,.T.);
#57=ORIENTED_EDGE('',*,*,#56,.T.);
#58=EDGE_LOOP('',(#57));
#59=FACE_OUTER_BOUND('',#58,.T.);
#60=CARTESIAN_POINT('',(42.0,5.143347E-015,3.667949192431137));
#61=VERTEX_POINT('',#60);
#62=CARTESIAN_POINT('',(0.0,0.0,3.667949192431137));
#63=DIRECTION('',(0.0,0.0,1.0));
#64=DIRECTION('',(-1.0,0.0,0.0));
#65=AXIS2_PLACEMENT_3D('',#62,#63,#64);
#66=CIRCLE('',#65,42.0);
#67=EDGE_CURVE('',#61,#61,#66,.T.);
#68=ORIENTED_EDGE('',*,*,#67,.T.);
#69=EDGE_LOOP('',(#68));
#70=FACE_BOUND('',#69,.T.);
#71=ADVANCED_FACE('',(#59,#70),#48,.T.);
#72=CARTESIAN_POINT('',(0.0,0.0,0.0));
#73=DIRECTION('',(0.0,0.0,1.0));
#74=DIRECTION('',(-1.0,0.0,0.0));
#75=AXIS2_PLACEMENT_3D('',#72,#73,#74);
#76=CYLINDRICAL_SURFACE('',#75,42.0);
#77=CARTESIAN_POINT('',(42.0,5.143347E-015,0.0));
#78=VERTEX_POINT('',#77);
#79=CARTESIAN_POINT('',(0.0,0.0,0.0));
#80=DIRECTION('',(0.0,0.0,-1.0));
#81=DIRECTION('',(-1.0,0.0,0.0));
#82=AXIS2_PLACEMENT_3D('',#79,#80,#81);
#83=CIRCLE('',#82,42.0);
#84=EDGE_CURVE('',#78,#78,#83,.T.);
#85=ORIENTED_EDGE('',*,*,#84,.F.);
#86=EDGE_LOOP('',(#85));
#87=FACE_OUTER_BOUND('',#86,.T.);
#88=ORIENTED_EDGE('',*,*,#67,.F.);
#89=EDGE_LOOP('',(#88));
#90=FACE_BOUND('',#89,.T.);
#91=ADVANCED_FACE('',(#87,#90),#76,.T.);
#92=CARTESIAN_POINT('',(0.0,0.0,7.400000000000001));
#93=DIRECTION('',(0.0,0.0,-1.0));
#94=DIRECTION('',(-1.0,0.0,0.0));
#95=AXIS2_PLACEMENT_3D('',#92,#93,#94);
#96=PLANE('',#95);
#97=ORIENTED_EDGE('',*,*,#56,.F.);
#98=EDGE_LOOP('',(#97));
#99=FACE_OUTER_BOUND('',#98,.T.);
#100=CARTESIAN_POINT('',(2.250000000000000,2.755364E-016,7.400000000000001));
#101=VERTEX_POINT('',#100);
#102=CARTESIAN_POINT('',(0.0,0.0,7.400000000000001));
#103=DIRECTION('',(0.0,0.0,-1.0));
#104=DIRECTION('',(-1.0,0.0,0.0));
#105=AXIS2_PLACEMENT_3D('',#102,#103,#104);
#106=CIRCLE('',#105,2.250000000000000);
#107=EDGE_CURVE('',#101,#101,#106,.T.);
#108=ORIENTED_EDGE('',*,*,#107,.T.);
#109=EDGE_LOOP('',(#108));
#110=FACE_BOUND('',#109,.T.);
#111=ADVANCED_FACE('',(#99,#110),#96,.F.);
#112=CARTESIAN_POINT('',(0.0,0.0,0.0));
#113=DIRECTION('',(0.0,0.0,1.0));
#114=DIRECTION('',(-1.0,0.0,0.0));
#115=AXIS2_PLACEMENT_3D('',#112,#113,#114);
#116=CYLINDRICAL_SURFACE('',#115,2.250000000000000);
#117=ORIENTED_EDGE('',*,*,#107,.F.);
#118=EDGE_LOOP('',(#117));
#119=FACE_OUTER_BOUND('',#118,.T.);
#120=CARTESIAN_POINT('',(2.250000000000000,2.755364E-016,0.0));
#121=VERTEX_POINT('',#120);
#122=CARTESIAN_POINT('',(0.0,0.0,0.0));
#123=DIRECTION('',(0.0,0.0,1.0));
#124=DIRECTION('',(-1.0,0.0,0.0));
#125=AXIS2_PLACEMENT_3D('',#122,#123,#124);
#126=CIRCLE('',#125,2.250000000000000);
#127=EDGE_CURVE('',#121,#121,#126,.T.);
#128=ORIENTED_EDGE('',*,*,#127,.F.);
#129=EDGE_LOOP('',(#128));
#130=FACE_BOUND('',#129,.T.);
#131=ADVANCED_FACE('',(#119,#130),#116,.F.);
#132=CARTESIAN_POINT('',(0.0,0.0,0.0));
#133=DIRECTION('',(0.0,0.0,-1.0));
#134=DIRECTION('',(-1.0,0.0,0.0));
#135=AXIS2_PLACEMENT_3D('',#132,#133,#134);
#136=PLANE('',#135);
#137=ORIENTED_EDGE('',*,*,#84,.T.);
#138=EDGE_LOOP('',(#137));
#139=FACE_OUTER_BOUND('',#138,.T.);
#140=ORIENTED_EDGE('',*,*,#127,.T.);
#141=EDGE_LOOP('',(#140));
#142=FACE_BOUND('',#141,.T.);
#143=ADVANCED_FACE('',(#139,#142),#136,.T.);
#144=CLOSED_SHELL('',(#71,#91,#111,#131,#143));
#145=MANIFOLD_SOLID_BREP('',#144);
#146=COLOUR_RGB('Standard',0.752941012382507,0.752941012382507,0.752941012382507);
#147=FILL_AREA_STYLE_COLOUR('Standard',#146);
#148=FILL_AREA_STYLE('Standard',(#147));
#149=SURFACE_STYLE_FILL_AREA(#148);
#150=SURFACE_SIDE_STYLE('Standard',(#149));
#151=SURFACE_STYLE_USAGE(.BOTH.,#150);
#152=PRESENTATION_STYLE_ASSIGNMENT((#151));
#153=STYLED_ITEM('',(#152),#145);
#154=MECHANICAL_DESIGN_GEOMETRIC_PRESENTATION_REPRESENTATION('',(#153),#36);
#155=ADVANCED_BREP_SHAPE_REPRESENTATION('ABSR',(#145),#36);
#156=SHAPE_REPRESENTATION_RELATIONSHIP('SRR','None',#155,#41);
ENDSEC;
END-ISO-10303-21;
