                                                                        S      1
,,7HR42.ipt,27HNo Iges File Name specified,21HAutoDesk Inventor R10,35HAG      1
utoDesk Inventor Iges Exporter R10,32,38,6,99,15,7HR42.ipt,1.0D0,2,2HMM,G      2
1,.08D0,15H20080520.165359,.01D0,10000.0D0,19HNo Author specified,25HNo G      3
Organization specified,11,0,,33HNo Application Protocol specified;      G      4
     116       1       0       0       0       0       0       000010000D      1
     116       0       0       1       0                               0D      2
     123       2       0       0       0       0       0       000010200D      3
     123       0       0       1       0                               0D      4
     194       3       0       0       0       0       0       000010000D      5
     194       0       0       1       1                               0D      6
     123       4       0       0       0       0       0       000010200D      7
     123       0       0       1       0                               0D      8
     502       5       0       0       0       0       0       000010000D      9
     502       0       0       3       1                               0D     10
     100       8       0       0       0       0      13       000010000D     11
     100       0       0       2       0                               0D     12
     124      10       0       0       0       0       0       000000000D     13
     124       0       0       2       0                               0D     14
     504      12       0       0       0       0       0       000010001D     15
     504       0       0       1       1                               0D     16
     508      13       0       0       0       0       0       000010000D     17
     508       0       0       1       1                               0D     18
     100      14       0       0       0       0      21       000010000D     19
     100       0       0       2       0                               0D     20
     124      16       0       0       0       0       0       000000000D     21
     124       0       0       2       0                               0D     22
     508      18       0       0       0       0       0       000010000D     23
     508       0       0       1       1                               0D     24
     510      19       0       0       0       0       0       000010001D     25
     510       0       0       1       1                               0D     26
     116      20       0       0       0       0       0       000010000D     27
     116       0       0       1       0                               0D     28
     123      21       0       0       0       0       0       000010200D     29
     123       0       0       1       0                               0D     30
     192      22       0       0       0       0       0       000010000D     31
     192       0       0       1       1                               0D     32
     123      23       0       0       0       0       0       000010200D     33
     123       0       0       1       0                               0D     34
     100      24       0       0       0       0      37       000010000D     35
     100       0       0       2       0                               0D     36
     124      26       0       0       0       0       0       000000000D     37
     124       0       0       2       0                               0D     38
     508      28       0       0       0       0       0       000010000D     39
     508       0       0       1       1                               0D     40
     508      29       0       0       0       0       0       000010000D     41
     508       0       0       1       1                               0D     42
     510      30       0       0       0       0       0       000010001D     43
     510       0       0       1       1                               0D     44
     116      31       0       0       0       0       0       000010000D     45
     116       0       0       1       0                               0D     46
     123      32       0       0       0       0       0       000010200D     47
     123       0       0       1       0                               0D     48
     190      33       0       0       0       0       0       000010000D     49
     190       0       0       1       1                               0D     50
     123      34       0       0       0       0       0       000010200D     51
     123       0       0       1       0                               0D     52
     508      35       0       0       0       0       0       000010000D     53
     508       0       0       1       1                               0D     54
     510      36       0       0       0       0       0       000010001D     55
     510       0       0       1       1                               0D     56
     116      37       0       0       0       0       0       000010000D     57
     116       0       0       1       0                               0D     58
     123      38       0       0       0       0       0       000010200D     59
     123       0       0       1       0                               0D     60
     190      39       0       0       0       0       0       000010000D     61
     190       0       0       1       1                               0D     62
     123      40       0       0       0       0       0       000010200D     63
     123       0       0       1       0                               0D     64
     508      41       0       0       0       0       0       000010000D     65
     508       0       0       1       1                               0D     66
     510      42       0       0       0       0       0       000010001D     67
     510       0       0       1       1                               0D     68
     514      43       0       0       0       0       0       000010000D     69
     514       0       0       1       1                               0D     70
     186      44       0       0       1       0       0       000000000D     71
     186       0     -73       1       0                               0D     72
     314      45       0       0       0       0       0       000000200D     73
     314       0       0       2       0                               0D     74
116,0.0D0,0.0D0,5.13397459621556D0,0;                                  1P      1
123,0.0D0,0.0D0,-1.0D0;                                                3P      2
194,1,3,20.5D0,15.0D0,7;                                               5P      3
123,-1.0D0,0.0D0,0.0D0;                                                7P      4
502,3,20.0D0,-2.44921270764475D-15,7.0D0,21.0D0,                       9P      5
2.57167334302699D-15,3.26794919243112D0,21.0D0,                        9P      6
2.57167334302699D-15,0.0D0;                                            9P      7
100,0.0D0,0.0D0,0.0D0,-20.0D0,2.44921270764475D-15,-20.0D0,           11P      8
2.44921270764475D-15;                                                 11P      9
124,-1.0D0,0.0D0,0.0D0,0.0D0,0.0D0,1.0D0,0.0D0,0.0D0,0.0D0,           13P     10
0.0D0,-1.0D0,7.0D0;                                                   13P     11
504,3,11,9,1,9,1,19,9,2,9,2,35,9,3,9,3;                               15P     12
508,1,0,15,1,1,0;                                                     17P     13
100,0.0D0,0.0D0,0.0D0,-21.0D0,2.57167334302699D-15,-21.0D0,           19P     14
2.57167334302699D-15;                                                 19P     15
124,-1.0D0,0.0D0,0.0D0,0.0D0,0.0D0,-1.0D0,0.0D0,0.0D0,0.0D0,          21P     16
0.0D0,1.0D0,3.26794919243112D0;                                       21P     17
508,1,0,15,2,1,0;                                                     23P     18
510,5,2,1,17,23;                                                      25P     19
116,0.0D0,0.0D0,0.0D0,0;                                              27P     20
123,0.0D0,0.0D0,1.0D0;                                                29P     21
192,27,29,21.0D0,33;                                                  31P     22
123,-1.0D0,0.0D0,0.0D0;                                               33P     23
100,0.0D0,0.0D0,0.0D0,-21.0D0,2.57167334302699D-15,-21.0D0,           35P     24
2.57167334302699D-15;                                                 35P     25
124,-1.0D0,0.0D0,0.0D0,0.0D0,0.0D0,1.0D0,0.0D0,0.0D0,0.0D0,           37P     26
0.0D0,-1.0D0,0.0D0;                                                   37P     27
508,1,0,15,3,0,0;                                                     39P     28
508,1,0,15,2,0,0;                                                     41P     29
510,31,2,1,39,41;                                                     43P     30
116,0.0D0,0.0D0,7.0D0,0;                                              45P     31
123,0.0D0,0.0D0,1.0D0;                                                47P     32
190,45,47,51;                                                         49P     33
123,1.0D0,0.0D0,0.0D0;                                                51P     34
508,1,0,15,1,0,0;                                                     53P     35
510,49,1,1,53;                                                        55P     36
116,0.0D0,0.0D0,0.0D0,0;                                              57P     37
123,0.0D0,0.0D0,-1.0D0;                                               59P     38
190,57,59,63;                                                         61P     39
123,-1.0D0,0.0D0,0.0D0;                                               63P     40
508,1,0,15,3,1,0;                                                     65P     41
510,61,1,1,65;                                                        67P     42
514,4,25,1,43,1,55,1,67,1;                                            69P     43
186,69,1,0;                                                           71P     44
314,75.2941012382507D0,75.2941012382507D0,75.2941012382507D0,8HS      73P     45
tandard;                                                              73P     46
S      1G      4D     74P     46                                        T      1
