ISO-10303-21;
HEADER;
/****************************************************************
 * Generated by software with PDE/Lib inside                    *
 * PDElib Version 4.0, created Tue Sep 21 13:54:59 EDT 2004     *
 * International Technegroup Inc. (www.iti-oh.com)              *
 ****************************************************************/
FILE_DESCRIPTION((''),'2;1');
FILE_NAME('C:\\Arbeitsordner\\CAD\\Inventor\\Internet\\11\\R100_100.stp','2008-05-21T13:18:13',('User'),(''),'Autodesk Inventor 10','Autodesk Inventor 10','');
FILE_SCHEMA(('AUTOMOTIVE_DESIGN { 1 0 10303 214 1 1 1 1 }'));
ENDSEC;
DATA;
#5=APPLICATION_CONTEXT('automotive design');
#6=APPLICATION_PROTOCOL_DEFINITION('Draft International Standard','automotive_design',1998,#5);
#7=PRODUCT_CONTEXT('None',#5,'mechanical');
#8=PRODUCT('R100_100','R100_100','None',(#7));
#9=PRODUCT_RELATED_PRODUCT_CATEGORY('part','description',(#8));
#10=PRODUCT_DEFINITION_FORMATION('None','None',#8);
#11=PRODUCT_DEFINITION_CONTEXT('part definition',#5,'design');
#12=PRODUCT_DEFINITION('None','None',#10,#11);
#18=(NAMED_UNIT(*)PLANE_ANGLE_UNIT()SI_UNIT($,.RADIAN.));
#19=DIMENSIONAL_EXPONENTS(0.0,0.0,0.0,0.0,0.0,0.0,0.0);
#20=PLANE_ANGLE_MEASURE_WITH_UNIT(PLANE_ANGLE_MEASURE(0.017453292500000),#18);
#24=(CONVERSION_BASED_UNIT('DEGREE',#20)NAMED_UNIT(#19)PLANE_ANGLE_UNIT());
#28=(NAMED_UNIT(*)SI_UNIT($,.STERADIAN.)SOLID_ANGLE_UNIT());
#32=(LENGTH_UNIT()NAMED_UNIT(*)SI_UNIT(.MILLI.,.METRE.));
#34=UNCERTAINTY_MEASURE_WITH_UNIT(LENGTH_MEASURE(0.010000000000000),#32,'DISTANCE_ACCURACY_VALUE','');
#36=(GEOMETRIC_REPRESENTATION_CONTEXT(3)GLOBAL_UNCERTAINTY_ASSIGNED_CONTEXT((#34))GLOBAL_UNIT_ASSIGNED_CONTEXT((#24,#28,#32))REPRESENTATION_CONTEXT('None','None'));
#37=AXIS2_PLACEMENT_3D('',#38,#39,#40);
#38=CARTESIAN_POINT('',(0.0,0.0,0.0));
#39=DIRECTION('',(0.0,0.0,1.0));
#40=DIRECTION('',(1.0,0.0,0.0));
#41=SHAPE_REPRESENTATION('',(#37),#36);
#42=PRODUCT_DEFINITION_SHAPE('','',#12);
#43=SHAPE_DEFINITION_REPRESENTATION(#42,#41);
#44=CARTESIAN_POINT('',(3.999999999999975,95.999999999999972,9.0));
#45=DIRECTION('',(0.0,0.0,-1.0));
#46=DIRECTION('',(0.707106781186549,-0.707106781186546,0.0));
#47=AXIS2_PLACEMENT_3D('',#44,#45,#46);
#48=CYLINDRICAL_SURFACE('',#47,4.000000000000001);
#49=CARTESIAN_POINT('',(3.999999999999975,92.0,2.999999999999999));
#50=VERTEX_POINT('',#49);
#51=CARTESIAN_POINT('',(7.999999999999975,95.999999999999972,2.999999999999999));
#52=VERTEX_POINT('',#51);
#53=CARTESIAN_POINT('',(3.999999999999975,95.999999999999972,3.000000000000003));
#54=DIRECTION('',(0.0,0.0,1.000000000000000));
#55=DIRECTION('',(0.707106781186549,-0.707106781186546,0.0));
#56=AXIS2_PLACEMENT_3D('',#53,#54,#55);
#57=CIRCLE('',#56,4.000000000000001);
#58=EDGE_CURVE('',#50,#52,#57,.T.);
#59=ORIENTED_EDGE('',*,*,#58,.F.);
#60=CARTESIAN_POINT('',(3.999999999999977,92.0,9.0));
#61=VERTEX_POINT('',#60);
#62=CARTESIAN_POINT('',(3.999999999999975,92.0,2.999999999999999));
#63=DIRECTION('',(0.0,0.0,1.0));
#64=VECTOR('',#63,6.000000000000001);
#65=LINE('',#62,#64);
#66=EDGE_CURVE('',#50,#61,#65,.T.);
#67=ORIENTED_EDGE('',*,*,#66,.T.);
#68=CARTESIAN_POINT('',(7.999999999999972,95.999999999999972,9.0));
#69=VERTEX_POINT('',#68);
#70=CARTESIAN_POINT('',(3.999999999999975,95.999999999999972,9.0));
#71=DIRECTION('',(0.0,0.0,1.000000000000000));
#72=DIRECTION('',(0.707106781186549,-0.707106781186546,0.0));
#73=AXIS2_PLACEMENT_3D('',#70,#71,#72);
#74=CIRCLE('',#73,4.000000000000001);
#75=EDGE_CURVE('',#61,#69,#74,.T.);
#76=ORIENTED_EDGE('',*,*,#75,.T.);
#77=CARTESIAN_POINT('',(7.999999999999972,95.999999999999972,9.0));
#78=DIRECTION('',(0.0,0.0,-1.0));
#79=VECTOR('',#78,6.000000000000001);
#80=LINE('',#77,#79);
#81=EDGE_CURVE('',#69,#52,#80,.T.);
#82=ORIENTED_EDGE('',*,*,#81,.T.);
#83=EDGE_LOOP('',(#59,#67,#76,#82));
#84=FACE_OUTER_BOUND('',#83,.T.);
#85=ADVANCED_FACE('',(#84),#48,.F.);
#86=CARTESIAN_POINT('',(7.999999999999975,92.0,9.0));
#87=DIRECTION('',(1.0,0.0,0.0));
#88=DIRECTION('',(0.0,0.0,-1.0));
#89=AXIS2_PLACEMENT_3D('',#86,#87,#88);
#90=PLANE('',#89);
#91=ORIENTED_EDGE('',*,*,#81,.F.);
#92=CARTESIAN_POINT('',(7.999999999999975,100.0,9.0));
#93=VERTEX_POINT('',#92);
#94=CARTESIAN_POINT('',(7.999999999999975,100.0,9.0));
#95=DIRECTION('',(0.0,-1.0,0.0));
#96=VECTOR('',#95,4.000000000000028);
#97=LINE('',#94,#96);
#98=EDGE_CURVE('',#93,#69,#97,.T.);
#99=ORIENTED_EDGE('',*,*,#98,.F.);
#100=CARTESIAN_POINT('',(7.999999999999975,100.0,3.000000000000003));
#101=VERTEX_POINT('',#100);
#102=CARTESIAN_POINT('',(7.999999999999975,100.0,3.000000000000003));
#103=DIRECTION('',(0.0,0.0,1.0));
#104=VECTOR('',#103,5.999999999999997);
#105=LINE('',#102,#104);
#106=EDGE_CURVE('',#101,#93,#105,.T.);
#107=ORIENTED_EDGE('',*,*,#106,.F.);
#108=CARTESIAN_POINT('',(7.999999999999975,95.999999999999972,2.999999999999999));
#109=DIRECTION('',(0.0,1.0,0.0));
#110=VECTOR('',#109,4.000000000000028);
#111=LINE('',#108,#110);
#112=EDGE_CURVE('',#52,#101,#111,.T.);
#113=ORIENTED_EDGE('',*,*,#112,.F.);
#114=EDGE_LOOP('',(#91,#99,#107,#113));
#115=FACE_OUTER_BOUND('',#114,.T.);
#116=ADVANCED_FACE('',(#115),#90,.F.);
#117=CARTESIAN_POINT('',(95.999999999999972,4.000000000000001,9.0));
#118=DIRECTION('',(0.0,0.0,-1.0));
#119=DIRECTION('',(-0.707106781186546,0.707106781186549,0.0));
#120=AXIS2_PLACEMENT_3D('',#117,#118,#119);
#121=CYLINDRICAL_SURFACE('',#120,4.0);
#122=CARTESIAN_POINT('',(95.999999999999972,8.000000000000002,2.999999999999999));
#123=VERTEX_POINT('',#122);
#124=CARTESIAN_POINT('',(91.999999999999972,4.000000000000001,2.999999999999999));
#125=VERTEX_POINT('',#124);
#126=CARTESIAN_POINT('',(95.999999999999972,4.000000000000001,3.000000000000000));
#127=DIRECTION('',(0.0,0.0,1.0));
#128=DIRECTION('',(-0.707106781186546,0.707106781186549,0.0));
#129=AXIS2_PLACEMENT_3D('',#126,#127,#128);
#130=CIRCLE('',#129,4.0);
#131=EDGE_CURVE('',#123,#125,#130,.T.);
#132=ORIENTED_EDGE('',*,*,#131,.F.);
#133=CARTESIAN_POINT('',(95.999999999999972,8.000000000000004,9.0));
#134=VERTEX_POINT('',#133);
#135=CARTESIAN_POINT('',(95.999999999999972,8.000000000000002,2.999999999999999));
#136=DIRECTION('',(0.0,0.0,1.0));
#137=VECTOR('',#136,6.000000000000001);
#138=LINE('',#135,#137);
#139=EDGE_CURVE('',#123,#134,#138,.T.);
#140=ORIENTED_EDGE('',*,*,#139,.T.);
#141=CARTESIAN_POINT('',(91.999999999999972,3.999999999999999,9.0));
#142=VERTEX_POINT('',#141);
#143=CARTESIAN_POINT('',(95.999999999999972,4.000000000000001,9.0));
#144=DIRECTION('',(0.0,0.0,1.0));
#145=DIRECTION('',(-0.707106781186546,0.707106781186549,0.0));
#146=AXIS2_PLACEMENT_3D('',#143,#144,#145);
#147=CIRCLE('',#146,4.0);
#148=EDGE_CURVE('',#134,#142,#147,.T.);
#149=ORIENTED_EDGE('',*,*,#148,.T.);
#150=CARTESIAN_POINT('',(91.999999999999972,3.999999999999999,9.0));
#151=DIRECTION('',(0.0,0.0,-1.0));
#152=VECTOR('',#151,6.000000000000001);
#153=LINE('',#150,#152);
#154=EDGE_CURVE('',#142,#125,#153,.T.);
#155=ORIENTED_EDGE('',*,*,#154,.T.);
#156=EDGE_LOOP('',(#132,#140,#149,#155));
#157=FACE_OUTER_BOUND('',#156,.T.);
#158=ADVANCED_FACE('',(#157),#121,.F.);
#159=CARTESIAN_POINT('',(91.999999999999972,8.0,9.0));
#160=DIRECTION('',(-1.0,0.0,0.0));
#161=DIRECTION('',(0.0,0.0,1.0));
#162=AXIS2_PLACEMENT_3D('',#159,#160,#161);
#163=PLANE('',#162);
#164=ORIENTED_EDGE('',*,*,#154,.F.);
#165=CARTESIAN_POINT('',(91.999999999999972,-3.914429E-016,9.0));
#166=VERTEX_POINT('',#165);
#167=CARTESIAN_POINT('',(91.999999999999972,-3.914429E-016,9.0));
#168=DIRECTION('',(0.0,1.0,0.0));
#169=VECTOR('',#168,4.000000000000000);
#170=LINE('',#167,#169);
#171=EDGE_CURVE('',#166,#142,#170,.T.);
#172=ORIENTED_EDGE('',*,*,#171,.F.);
#173=CARTESIAN_POINT('',(91.999999999999972,-3.914429E-016,3.000000000000000));
#174=VERTEX_POINT('',#173);
#175=CARTESIAN_POINT('',(91.999999999999972,-3.914429E-016,3.000000000000000));
#176=DIRECTION('',(0.0,0.0,1.0));
#177=VECTOR('',#176,6.0);
#178=LINE('',#175,#177);
#179=EDGE_CURVE('',#174,#166,#178,.T.);
#180=ORIENTED_EDGE('',*,*,#179,.F.);
#181=CARTESIAN_POINT('',(91.999999999999972,4.000000000000001,2.999999999999999));
#182=DIRECTION('',(0.0,-1.0,0.0));
#183=VECTOR('',#182,4.000000000000001);
#184=LINE('',#181,#183);
#185=EDGE_CURVE('',#125,#174,#184,.T.);
#186=ORIENTED_EDGE('',*,*,#185,.F.);
#187=EDGE_LOOP('',(#164,#172,#180,#186));
#188=FACE_OUTER_BOUND('',#187,.T.);
#189=ADVANCED_FACE('',(#188),#163,.F.);
#190=CARTESIAN_POINT('',(-2.442491E-014,92.0,9.0));
#191=DIRECTION('',(0.0,-1.0,0.0));
#192=DIRECTION('',(0.0,0.0,-1.0));
#193=AXIS2_PLACEMENT_3D('',#190,#191,#192);
#194=PLANE('',#193);
#195=ORIENTED_EDGE('',*,*,#66,.F.);
#196=CARTESIAN_POINT('',(-2.442491E-014,92.0,3.000000000000003));
#197=VERTEX_POINT('',#196);
#198=CARTESIAN_POINT('',(-2.442491E-014,92.0,3.000000000000003));
#199=DIRECTION('',(1.0,0.0,0.0));
#200=VECTOR('',#199,3.999999999999999);
#201=LINE('',#198,#200);
#202=EDGE_CURVE('',#197,#50,#201,.T.);
#203=ORIENTED_EDGE('',*,*,#202,.F.);
#204=CARTESIAN_POINT('',(-2.442491E-014,92.0,9.0));
#205=VERTEX_POINT('',#204);
#206=CARTESIAN_POINT('',(-2.442491E-014,92.0,9.0));
#207=DIRECTION('',(0.0,0.0,-1.0));
#208=VECTOR('',#207,5.999999999999997);
#209=LINE('',#206,#208);
#210=EDGE_CURVE('',#205,#197,#209,.T.);
#211=ORIENTED_EDGE('',*,*,#210,.F.);
#212=CARTESIAN_POINT('',(3.999999999999977,92.0,9.0));
#213=DIRECTION('',(-1.0,0.0,0.0));
#214=VECTOR('',#213,4.000000000000002);
#215=LINE('',#212,#214);
#216=EDGE_CURVE('',#61,#205,#215,.T.);
#217=ORIENTED_EDGE('',*,*,#216,.F.);
#218=EDGE_LOOP('',(#195,#203,#211,#217));
#219=FACE_OUTER_BOUND('',#218,.T.);
#220=ADVANCED_FACE('',(#219),#194,.F.);
#221=CARTESIAN_POINT('',(3.999999999999974,96.000000000000014,3.000000000000003));
#222=DIRECTION('',(0.0,0.0,1.0));
#223=DIRECTION('',(1.0,0.0,0.0));
#224=AXIS2_PLACEMENT_3D('',#221,#222,#223);
#225=PLANE('',#224);
#226=ORIENTED_EDGE('',*,*,#58,.T.);
#227=ORIENTED_EDGE('',*,*,#112,.T.);
#228=CARTESIAN_POINT('',(-2.664535E-014,100.0,3.000000000000003));
#229=VERTEX_POINT('',#228);
#230=CARTESIAN_POINT('',(-2.664535E-014,100.0,3.000000000000003));
#231=DIRECTION('',(1.0,0.0,0.0));
#232=VECTOR('',#231,8.000000000000002);
#233=LINE('',#230,#232);
#234=EDGE_CURVE('',#229,#101,#233,.T.);
#235=ORIENTED_EDGE('',*,*,#234,.F.);
#236=CARTESIAN_POINT('',(-2.442491E-014,92.0,3.000000000000003));
#237=DIRECTION('',(0.0,1.0,0.0));
#238=VECTOR('',#237,8.0);
#239=LINE('',#236,#238);
#240=EDGE_CURVE('',#197,#229,#239,.T.);
#241=ORIENTED_EDGE('',*,*,#240,.F.);
#242=ORIENTED_EDGE('',*,*,#202,.T.);
#243=EDGE_LOOP('',(#226,#227,#235,#241,#242));
#244=FACE_OUTER_BOUND('',#243,.T.);
#245=CARTESIAN_POINT('',(5.599999999999969,96.000000000000014,2.999999999999999));
#246=VERTEX_POINT('',#245);
#247=CARTESIAN_POINT('',(3.999999999999968,96.000000000000014,3.000000000000003));
#248=DIRECTION('',(0.0,0.0,1.0));
#249=DIRECTION('',(-1.0,0.0,0.0));
#250=AXIS2_PLACEMENT_3D('',#247,#248,#249);
#251=CIRCLE('',#250,1.600000000000000);
#252=EDGE_CURVE('',#246,#246,#251,.T.);
#253=ORIENTED_EDGE('',*,*,#252,.F.);
#254=EDGE_LOOP('',(#253));
#255=FACE_BOUND('',#254,.T.);
#256=ADVANCED_FACE('',(#244,#255),#225,.T.);
#257=CARTESIAN_POINT('',(99.999999999999986,8.000000000000004,9.0));
#258=DIRECTION('',(0.0,1.0,0.0));
#259=DIRECTION('',(0.0,0.0,1.0));
#260=AXIS2_PLACEMENT_3D('',#257,#258,#259);
#261=PLANE('',#260);
#262=ORIENTED_EDGE('',*,*,#139,.F.);
#263=CARTESIAN_POINT('',(99.999999999999986,8.000000000000004,3.000000000000000));
#264=VERTEX_POINT('',#263);
#265=CARTESIAN_POINT('',(99.999999999999986,8.000000000000004,3.000000000000000));
#266=DIRECTION('',(-1.0,0.0,0.0));
#267=VECTOR('',#266,4.000000000000014);
#268=LINE('',#265,#267);
#269=EDGE_CURVE('',#264,#123,#268,.T.);
#270=ORIENTED_EDGE('',*,*,#269,.F.);
#271=CARTESIAN_POINT('',(99.999999999999986,8.000000000000004,9.0));
#272=VERTEX_POINT('',#271);
#273=CARTESIAN_POINT('',(99.999999999999986,8.000000000000004,9.0));
#274=DIRECTION('',(0.0,0.0,-1.0));
#275=VECTOR('',#274,6.0);
#276=LINE('',#273,#275);
#277=EDGE_CURVE('',#272,#264,#276,.T.);
#278=ORIENTED_EDGE('',*,*,#277,.F.);
#279=CARTESIAN_POINT('',(95.999999999999972,8.000000000000004,9.0));
#280=DIRECTION('',(1.0,0.0,0.0));
#281=VECTOR('',#280,4.000000000000014);
#282=LINE('',#279,#281);
#283=EDGE_CURVE('',#134,#272,#282,.T.);
#284=ORIENTED_EDGE('',*,*,#283,.F.);
#285=EDGE_LOOP('',(#262,#270,#278,#284));
#286=FACE_OUTER_BOUND('',#285,.T.);
#287=ADVANCED_FACE('',(#286),#261,.F.);
#288=CARTESIAN_POINT('',(95.999999999999972,4.0,3.000000000000000));
#289=DIRECTION('',(0.0,0.0,1.0));
#290=DIRECTION('',(1.0,0.0,0.0));
#291=AXIS2_PLACEMENT_3D('',#288,#289,#290);
#292=PLANE('',#291);
#293=ORIENTED_EDGE('',*,*,#131,.T.);
#294=ORIENTED_EDGE('',*,*,#185,.T.);
#295=CARTESIAN_POINT('',(99.999999999999986,0.0,3.000000000000000));
#296=VERTEX_POINT('',#295);
#297=CARTESIAN_POINT('',(99.999999999999986,0.0,3.000000000000000));
#298=DIRECTION('',(-1.0,0.0,0.0));
#299=VECTOR('',#298,8.000000000000014);
#300=LINE('',#297,#299);
#301=EDGE_CURVE('',#296,#174,#300,.T.);
#302=ORIENTED_EDGE('',*,*,#301,.F.);
#303=CARTESIAN_POINT('',(99.999999999999986,8.000000000000004,3.000000000000000));
#304=DIRECTION('',(0.0,-1.0,0.0));
#305=VECTOR('',#304,8.000000000000004);
#306=LINE('',#303,#305);
#307=EDGE_CURVE('',#264,#296,#306,.T.);
#308=ORIENTED_EDGE('',*,*,#307,.F.);
#309=ORIENTED_EDGE('',*,*,#269,.T.);
#310=EDGE_LOOP('',(#293,#294,#302,#308,#309));
#311=FACE_OUTER_BOUND('',#310,.T.);
#312=CARTESIAN_POINT('',(97.599999999999980,3.999999999999999,2.999999999999999));
#313=VERTEX_POINT('',#312);
#314=CARTESIAN_POINT('',(95.999999999999972,3.999999999999999,3.000000000000000));
#315=DIRECTION('',(0.0,0.0,1.0));
#316=DIRECTION('',(-1.0,0.0,0.0));
#317=AXIS2_PLACEMENT_3D('',#314,#315,#316);
#318=CIRCLE('',#317,1.600000000000000);
#319=EDGE_CURVE('',#313,#313,#318,.T.);
#320=ORIENTED_EDGE('',*,*,#319,.F.);
#321=EDGE_LOOP('',(#320));
#322=FACE_BOUND('',#321,.T.);
#323=ADVANCED_FACE('',(#311,#322),#292,.T.);
#324=CARTESIAN_POINT('',(0.0,0.0,0.0));
#325=DIRECTION('',(-1.0,0.0,0.0));
#326=DIRECTION('',(0.0,0.0,1.0));
#327=AXIS2_PLACEMENT_3D('',#324,#325,#326);
#328=PLANE('',#327);
#329=ORIENTED_EDGE('',*,*,#210,.T.);
#330=ORIENTED_EDGE('',*,*,#240,.T.);
#331=CARTESIAN_POINT('',(-2.664535E-014,100.0,0.0));
#332=VERTEX_POINT('',#331);
#333=CARTESIAN_POINT('',(-2.664535E-014,100.0,0.0));
#334=DIRECTION('',(0.0,0.0,1.0));
#335=VECTOR('',#334,3.000000000000003);
#336=LINE('',#333,#335);
#337=EDGE_CURVE('',#332,#229,#336,.T.);
#338=ORIENTED_EDGE('',*,*,#337,.F.);
#339=CARTESIAN_POINT('',(0.0,0.0,0.0));
#340=VERTEX_POINT('',#339);
#341=CARTESIAN_POINT('',(-2.664535E-014,100.0,0.0));
#342=DIRECTION('',(0.0,-1.0,0.0));
#343=VECTOR('',#342,100.0);
#344=LINE('',#341,#343);
#345=EDGE_CURVE('',#332,#340,#344,.T.);
#346=ORIENTED_EDGE('',*,*,#345,.T.);
#347=CARTESIAN_POINT('',(0.0,0.0,9.0));
#348=VERTEX_POINT('',#347);
#349=CARTESIAN_POINT('',(0.0,0.0,0.0));
#350=DIRECTION('',(0.0,0.0,1.0));
#351=VECTOR('',#350,9.0);
#352=LINE('',#349,#351);
#353=EDGE_CURVE('',#340,#348,#352,.T.);
#354=ORIENTED_EDGE('',*,*,#353,.T.);
#355=CARTESIAN_POINT('',(0.0,0.0,9.0));
#356=DIRECTION('',(0.0,1.0,0.0));
#357=VECTOR('',#356,92.0);
#358=LINE('',#355,#357);
#359=EDGE_CURVE('',#348,#205,#358,.T.);
#360=ORIENTED_EDGE('',*,*,#359,.T.);
#361=EDGE_LOOP('',(#329,#330,#338,#346,#354,#360));
#362=FACE_OUTER_BOUND('',#361,.T.);
#363=ADVANCED_FACE('',(#362),#328,.T.);
#364=CARTESIAN_POINT('',(49.999999999999993,50.0,9.0));
#365=DIRECTION('',(0.0,0.0,1.0));
#366=DIRECTION('',(1.0,0.0,0.0));
#367=AXIS2_PLACEMENT_3D('',#364,#365,#366);
#368=PLANE('',#367);
#369=ORIENTED_EDGE('',*,*,#98,.T.);
#370=ORIENTED_EDGE('',*,*,#75,.F.);
#371=ORIENTED_EDGE('',*,*,#216,.T.);
#372=ORIENTED_EDGE('',*,*,#359,.F.);
#373=CARTESIAN_POINT('',(91.999999999999972,-3.914429E-016,9.0));
#374=DIRECTION('',(-1.0,0.0,0.0));
#375=VECTOR('',#374,91.999999999999972);
#376=LINE('',#373,#375);
#377=EDGE_CURVE('',#166,#348,#376,.T.);
#378=ORIENTED_EDGE('',*,*,#377,.F.);
#379=ORIENTED_EDGE('',*,*,#171,.T.);
#380=ORIENTED_EDGE('',*,*,#148,.F.);
#381=ORIENTED_EDGE('',*,*,#283,.T.);
#382=CARTESIAN_POINT('',(99.999999999999972,100.000000000000010,9.0));
#383=VERTEX_POINT('',#382);
#384=CARTESIAN_POINT('',(99.999999999999972,100.000000000000010,9.0));
#385=DIRECTION('',(0.0,-1.0,0.0));
#386=VECTOR('',#385,92.000000000000014);
#387=LINE('',#384,#386);
#388=EDGE_CURVE('',#383,#272,#387,.T.);
#389=ORIENTED_EDGE('',*,*,#388,.F.);
#390=CARTESIAN_POINT('',(7.999999999999975,100.0,9.0));
#391=DIRECTION('',(1.0,0.0,0.0));
#392=VECTOR('',#391,92.0);
#393=LINE('',#390,#392);
#394=EDGE_CURVE('',#93,#383,#393,.T.);
#395=ORIENTED_EDGE('',*,*,#394,.F.);
#396=EDGE_LOOP('',(#369,#370,#371,#372,#378,#379,#380,#381,#389,#395));
#397=FACE_OUTER_BOUND('',#396,.T.);
#398=ADVANCED_FACE('',(#397),#368,.T.);
#399=CARTESIAN_POINT('',(99.999999999999972,100.000000000000010,0.0));
#400=DIRECTION('',(1.0,0.0,0.0));
#401=DIRECTION('',(0.0,0.0,-1.0));
#402=AXIS2_PLACEMENT_3D('',#399,#400,#401);
#403=PLANE('',#402);
#404=ORIENTED_EDGE('',*,*,#277,.T.);
#405=ORIENTED_EDGE('',*,*,#307,.T.);
#406=CARTESIAN_POINT('',(99.999999999999986,0.0,0.0));
#407=VERTEX_POINT('',#406);
#408=CARTESIAN_POINT('',(99.999999999999986,0.0,0.0));
#409=DIRECTION('',(0.0,0.0,1.0));
#410=VECTOR('',#409,3.000000000000000);
#411=LINE('',#408,#410);
#412=EDGE_CURVE('',#407,#296,#411,.T.);
#413=ORIENTED_EDGE('',*,*,#412,.F.);
#414=CARTESIAN_POINT('',(99.999999999999972,100.000000000000010,0.0));
#415=VERTEX_POINT('',#414);
#416=CARTESIAN_POINT('',(99.999999999999986,0.0,0.0));
#417=DIRECTION('',(0.0,1.0,0.0));
#418=VECTOR('',#417,100.000000000000010);
#419=LINE('',#416,#418);
#420=EDGE_CURVE('',#407,#415,#419,.T.);
#421=ORIENTED_EDGE('',*,*,#420,.T.);
#422=CARTESIAN_POINT('',(99.999999999999972,100.000000000000010,0.0));
#423=DIRECTION('',(0.0,0.0,1.0));
#424=VECTOR('',#423,9.0);
#425=LINE('',#422,#424);
#426=EDGE_CURVE('',#415,#383,#425,.T.);
#427=ORIENTED_EDGE('',*,*,#426,.T.);
#428=ORIENTED_EDGE('',*,*,#388,.T.);
#429=EDGE_LOOP('',(#404,#405,#413,#421,#427,#428));
#430=FACE_OUTER_BOUND('',#429,.T.);
#431=ADVANCED_FACE('',(#430),#403,.T.);
#432=CARTESIAN_POINT('',(95.999999999999972,3.999999999999999,0.0));
#433=DIRECTION('',(0.0,0.0,1.0));
#434=DIRECTION('',(-1.0,0.0,0.0));
#435=AXIS2_PLACEMENT_3D('',#432,#433,#434);
#436=CYLINDRICAL_SURFACE('',#435,1.600000000000000);
#437=ORIENTED_EDGE('',*,*,#319,.T.);
#438=EDGE_LOOP('',(#437));
#439=FACE_OUTER_BOUND('',#438,.T.);
#440=CARTESIAN_POINT('',(97.599999999999980,3.999999999999999,0.0));
#441=VERTEX_POINT('',#440);
#442=CARTESIAN_POINT('',(95.999999999999972,3.999999999999999,0.0));
#443=DIRECTION('',(0.0,0.0,1.0));
#444=DIRECTION('',(-1.0,0.0,0.0));
#445=AXIS2_PLACEMENT_3D('',#442,#443,#444);
#446=CIRCLE('',#445,1.600000000000000);
#447=EDGE_CURVE('',#441,#441,#446,.T.);
#448=ORIENTED_EDGE('',*,*,#447,.F.);
#449=EDGE_LOOP('',(#448));
#450=FACE_BOUND('',#449,.T.);
#451=ADVANCED_FACE('',(#439,#450),#436,.F.);
#452=CARTESIAN_POINT('',(3.999999999999968,96.000000000000014,0.0));
#453=DIRECTION('',(0.0,0.0,1.0));
#454=DIRECTION('',(-1.0,0.0,0.0));
#455=AXIS2_PLACEMENT_3D('',#452,#453,#454);
#456=CYLINDRICAL_SURFACE('',#455,1.600000000000000);
#457=ORIENTED_EDGE('',*,*,#252,.T.);
#458=EDGE_LOOP('',(#457));
#459=FACE_OUTER_BOUND('',#458,.T.);
#460=CARTESIAN_POINT('',(5.599999999999969,96.000000000000014,0.0));
#461=VERTEX_POINT('',#460);
#462=CARTESIAN_POINT('',(3.999999999999968,96.000000000000014,0.0));
#463=DIRECTION('',(0.0,0.0,1.0));
#464=DIRECTION('',(-1.0,0.0,0.0));
#465=AXIS2_PLACEMENT_3D('',#462,#463,#464);
#466=CIRCLE('',#465,1.600000000000000);
#467=EDGE_CURVE('',#461,#461,#466,.T.);
#468=ORIENTED_EDGE('',*,*,#467,.F.);
#469=EDGE_LOOP('',(#468));
#470=FACE_BOUND('',#469,.T.);
#471=ADVANCED_FACE('',(#459,#470),#456,.F.);
#472=CARTESIAN_POINT('',(-2.664535E-014,100.0,0.0));
#473=DIRECTION('',(0.0,1.0,0.0));
#474=DIRECTION('',(0.0,0.0,1.0));
#475=AXIS2_PLACEMENT_3D('',#472,#473,#474);
#476=PLANE('',#475);
#477=ORIENTED_EDGE('',*,*,#106,.T.);
#478=ORIENTED_EDGE('',*,*,#394,.T.);
#479=ORIENTED_EDGE('',*,*,#426,.F.);
#480=CARTESIAN_POINT('',(99.999999999999972,100.000000000000010,0.0));
#481=DIRECTION('',(-1.0,0.0,0.0));
#482=VECTOR('',#481,100.0);
#483=LINE('',#480,#482);
#484=EDGE_CURVE('',#415,#332,#483,.T.);
#485=ORIENTED_EDGE('',*,*,#484,.T.);
#486=ORIENTED_EDGE('',*,*,#337,.T.);
#487=ORIENTED_EDGE('',*,*,#234,.T.);
#488=EDGE_LOOP('',(#477,#478,#479,#485,#486,#487));
#489=FACE_OUTER_BOUND('',#488,.T.);
#490=ADVANCED_FACE('',(#489),#476,.T.);
#491=CARTESIAN_POINT('',(99.999999999999986,0.0,0.0));
#492=DIRECTION('',(0.0,-1.0,0.0));
#493=DIRECTION('',(0.0,0.0,-1.0));
#494=AXIS2_PLACEMENT_3D('',#491,#492,#493);
#495=PLANE('',#494);
#496=ORIENTED_EDGE('',*,*,#179,.T.);
#497=ORIENTED_EDGE('',*,*,#377,.T.);
#498=ORIENTED_EDGE('',*,*,#353,.F.);
#499=CARTESIAN_POINT('',(0.0,0.0,0.0));
#500=DIRECTION('',(1.0,0.0,0.0));
#501=VECTOR('',#500,99.999999999999986);
#502=LINE('',#499,#501);
#503=EDGE_CURVE('',#340,#407,#502,.T.);
#504=ORIENTED_EDGE('',*,*,#503,.T.);
#505=ORIENTED_EDGE('',*,*,#412,.T.);
#506=ORIENTED_EDGE('',*,*,#301,.T.);
#507=EDGE_LOOP('',(#496,#497,#498,#504,#505,#506));
#508=FACE_OUTER_BOUND('',#507,.T.);
#509=ADVANCED_FACE('',(#508),#495,.T.);
#510=CARTESIAN_POINT('',(49.999999999999993,50.0,0.0));
#511=DIRECTION('',(0.0,0.0,1.0));
#512=DIRECTION('',(1.0,0.0,0.0));
#513=AXIS2_PLACEMENT_3D('',#510,#511,#512);
#514=PLANE('',#513);
#515=ORIENTED_EDGE('',*,*,#503,.F.);
#516=ORIENTED_EDGE('',*,*,#345,.F.);
#517=ORIENTED_EDGE('',*,*,#484,.F.);
#518=ORIENTED_EDGE('',*,*,#420,.F.);
#519=EDGE_LOOP('',(#515,#516,#517,#518));
#520=FACE_OUTER_BOUND('',#519,.T.);
#521=ORIENTED_EDGE('',*,*,#447,.T.);
#522=EDGE_LOOP('',(#521));
#523=FACE_BOUND('',#522,.T.);
#524=ORIENTED_EDGE('',*,*,#467,.T.);
#525=EDGE_LOOP('',(#524));
#526=FACE_BOUND('',#525,.T.);
#527=ADVANCED_FACE('',(#520,#523,#526),#514,.F.);
#528=CLOSED_SHELL('',(#85,#116,#158,#189,#220,#256,#287,#323,#363,#398,#431,#451,#471,#490,#509,#527));
#529=MANIFOLD_SOLID_BREP('',#528);
#530=COLOUR_RGB('Standard',0.752941012382507,0.752941012382507,0.752941012382507);
#531=FILL_AREA_STYLE_COLOUR('Standard',#530);
#532=FILL_AREA_STYLE('Standard',(#531));
#533=SURFACE_STYLE_FILL_AREA(#532);
#534=SURFACE_SIDE_STYLE('Standard',(#533));
#535=SURFACE_STYLE_USAGE(.BOTH.,#534);
#536=PRESENTATION_STYLE_ASSIGNMENT((#535));
#537=STYLED_ITEM('',(#536),#529);
#538=MECHANICAL_DESIGN_GEOMETRIC_PRESENTATION_REPRESENTATION('',(#537),#36);
#539=ADVANCED_BREP_SHAPE_REPRESENTATION('ABSR',(#529),#36);
#540=SHAPE_REPRESENTATION_RELATIONSHIP('SRR','None',#539,#41);
ENDSEC;
END-ISO-10303-21;
