ISO-10303-21;
HEADER;
/* Generated by software containing ST-Developer
 * from STEP Tools, Inc. (www.steptools.com) 
 */

FILE_DESCRIPTION(
/* description */ ('Nutenstein BEK-A'),
/* implementation_level */ '2;1');

FILE_NAME(
/* name */ 
'G:\\Entwicklung\\Zeichnungen\\3D\\parts - step iges\\Nutenstein BEK-A.
stp',
/* time_stamp */ '2020-02-27T13:50:03+01:00',
/* author */ ('S. Sandt'),
/* organization */ ('di-soric GmbH & Co. KG'),
/* preprocessor_version */ 'ST-DEVELOPER v18',
/* originating_system */ 'Autodesk Inventor 2020',
/* authorisation */ '');

FILE_SCHEMA (('AUTOMOTIVE_DESIGN { 1 0 10303 214 3 1 1 }'));
ENDSEC;

DATA;
#10=MECHANICAL_DESIGN_GEOMETRIC_PRESENTATION_REPRESENTATION('',(#13),#551);
#11=SHAPE_REPRESENTATION_RELATIONSHIP('SRR','None',#558,#12);
#12=ADVANCED_BREP_SHAPE_REPRESENTATION('',(#14),#550);
#13=STYLED_ITEM('',(#567),#14);
#14=MANIFOLD_SOLID_BREP('Volumenk\X\F6rper8',#331);
#15=FACE_BOUND('',#54,.T.);
#16=FACE_BOUND('',#55,.T.);
#17=FACE_BOUND('',#58,.T.);
#18=FACE_BOUND('',#59,.T.);
#19=CIRCLE('',#360,1.621);
#20=CIRCLE('',#361,1.621);
#21=CIRCLE('',#362,1.621);
#22=CIRCLE('',#364,1.621);
#23=CIRCLE('',#365,1.621);
#24=CIRCLE('',#366,1.621);
#25=CYLINDRICAL_SURFACE('',#359,1.621);
#26=CYLINDRICAL_SURFACE('',#363,1.621);
#27=FACE_OUTER_BOUND('',#43,.T.);
#28=FACE_OUTER_BOUND('',#44,.T.);
#29=FACE_OUTER_BOUND('',#45,.T.);
#30=FACE_OUTER_BOUND('',#46,.T.);
#31=FACE_OUTER_BOUND('',#47,.T.);
#32=FACE_OUTER_BOUND('',#48,.T.);
#33=FACE_OUTER_BOUND('',#49,.T.);
#34=FACE_OUTER_BOUND('',#50,.T.);
#35=FACE_OUTER_BOUND('',#51,.T.);
#36=FACE_OUTER_BOUND('',#52,.T.);
#37=FACE_OUTER_BOUND('',#53,.T.);
#38=FACE_OUTER_BOUND('',#56,.T.);
#39=FACE_OUTER_BOUND('',#57,.T.);
#40=FACE_OUTER_BOUND('',#60,.T.);
#41=FACE_OUTER_BOUND('',#61,.T.);
#42=FACE_OUTER_BOUND('',#62,.T.);
#43=EDGE_LOOP('',(#213,#214,#215,#216));
#44=EDGE_LOOP('',(#217,#218,#219,#220));
#45=EDGE_LOOP('',(#221,#222,#223,#224,#225,#226,#227,#228,#229,#230,#231,
#232));
#46=EDGE_LOOP('',(#233,#234,#235,#236));
#47=EDGE_LOOP('',(#237,#238,#239,#240));
#48=EDGE_LOOP('',(#241,#242,#243,#244));
#49=EDGE_LOOP('',(#245,#246,#247,#248));
#50=EDGE_LOOP('',(#249,#250,#251,#252));
#51=EDGE_LOOP('',(#253,#254,#255,#256,#257));
#52=EDGE_LOOP('',(#258,#259,#260,#261,#262));
#53=EDGE_LOOP('',(#263,#264,#265,#266));
#54=EDGE_LOOP('',(#267,#268));
#55=EDGE_LOOP('',(#269,#270));
#56=EDGE_LOOP('',(#271,#272,#273,#274));
#57=EDGE_LOOP('',(#275,#276,#277,#278));
#58=EDGE_LOOP('',(#279));
#59=EDGE_LOOP('',(#280));
#60=EDGE_LOOP('',(#281,#282,#283,#284));
#61=EDGE_LOOP('',(#285,#286,#287,#288));
#62=EDGE_LOOP('',(#289,#290,#291,#292,#293,#294,#295,#296,#297,#298,#299,
#300));
#63=LINE('',#461,#101);
#64=LINE('',#463,#102);
#65=LINE('',#465,#103);
#66=LINE('',#466,#104);
#67=LINE('',#469,#105);
#68=LINE('',#471,#106);
#69=LINE('',#472,#107);
#70=LINE('',#475,#108);
#71=LINE('',#477,#109);
#72=LINE('',#479,#110);
#73=LINE('',#481,#111);
#74=LINE('',#483,#112);
#75=LINE('',#485,#113);
#76=LINE('',#487,#114);
#77=LINE('',#489,#115);
#78=LINE('',#491,#116);
#79=LINE('',#492,#117);
#80=LINE('',#496,#118);
#81=LINE('',#497,#119);
#82=LINE('',#498,#120);
#83=LINE('',#501,#121);
#84=LINE('',#502,#122);
#85=LINE('',#506,#123);
#86=LINE('',#507,#124);
#87=LINE('',#508,#125);
#88=LINE('',#510,#126);
#89=LINE('',#513,#127);
#90=LINE('',#514,#128);
#91=LINE('',#521,#129);
#92=LINE('',#529,#130);
#93=LINE('',#533,#131);
#94=LINE('',#535,#132);
#95=LINE('',#536,#133);
#96=LINE('',#538,#134);
#97=LINE('',#540,#135);
#98=LINE('',#543,#136);
#99=LINE('',#544,#137);
#100=LINE('',#546,#138);
#101=VECTOR('',#377,10.);
#102=VECTOR('',#378,10.);
#103=VECTOR('',#379,10.);
#104=VECTOR('',#380,10.);
#105=VECTOR('',#383,10.);
#106=VECTOR('',#384,10.);
#107=VECTOR('',#385,10.);
#108=VECTOR('',#388,10.);
#109=VECTOR('',#389,10.);
#110=VECTOR('',#390,10.);
#111=VECTOR('',#391,10.);
#112=VECTOR('',#392,10.);
#113=VECTOR('',#393,10.);
#114=VECTOR('',#394,10.);
#115=VECTOR('',#395,10.);
#116=VECTOR('',#396,10.);
#117=VECTOR('',#397,10.);
#118=VECTOR('',#400,10.);
#119=VECTOR('',#401,10.);
#120=VECTOR('',#402,10.);
#121=VECTOR('',#405,10.);
#122=VECTOR('',#406,10.);
#123=VECTOR('',#409,10.);
#124=VECTOR('',#410,10.);
#125=VECTOR('',#411,10.);
#126=VECTOR('',#414,10.);
#127=VECTOR('',#417,10.);
#128=VECTOR('',#418,10.);
#129=VECTOR('',#425,1.621);
#130=VECTOR('',#434,1.621);
#131=VECTOR('',#439,10.);
#132=VECTOR('',#440,10.);
#133=VECTOR('',#441,10.);
#134=VECTOR('',#444,10.);
#135=VECTOR('',#447,10.);
#136=VECTOR('',#450,10.);
#137=VECTOR('',#451,10.);
#138=VECTOR('',#454,10.);
#139=VERTEX_POINT('',#459);
#140=VERTEX_POINT('',#460);
#141=VERTEX_POINT('',#462);
#142=VERTEX_POINT('',#464);
#143=VERTEX_POINT('',#468);
#144=VERTEX_POINT('',#470);
#145=VERTEX_POINT('',#474);
#146=VERTEX_POINT('',#476);
#147=VERTEX_POINT('',#478);
#148=VERTEX_POINT('',#480);
#149=VERTEX_POINT('',#482);
#150=VERTEX_POINT('',#484);
#151=VERTEX_POINT('',#486);
#152=VERTEX_POINT('',#488);
#153=VERTEX_POINT('',#490);
#154=VERTEX_POINT('',#494);
#155=VERTEX_POINT('',#495);
#156=VERTEX_POINT('',#500);
#157=VERTEX_POINT('',#504);
#158=VERTEX_POINT('',#505);
#159=VERTEX_POINT('',#512);
#160=VERTEX_POINT('',#516);
#161=VERTEX_POINT('',#517);
#162=VERTEX_POINT('',#520);
#163=VERTEX_POINT('',#524);
#164=VERTEX_POINT('',#525);
#165=VERTEX_POINT('',#528);
#166=VERTEX_POINT('',#532);
#167=VERTEX_POINT('',#534);
#168=VERTEX_POINT('',#542);
#169=EDGE_CURVE('',#139,#140,#63,.T.);
#170=EDGE_CURVE('',#140,#141,#64,.T.);
#171=EDGE_CURVE('',#141,#142,#65,.T.);
#172=EDGE_CURVE('',#142,#139,#66,.T.);
#173=EDGE_CURVE('',#142,#143,#67,.T.);
#174=EDGE_CURVE('',#143,#144,#68,.T.);
#175=EDGE_CURVE('',#139,#144,#69,.T.);
#176=EDGE_CURVE('',#145,#141,#70,.T.);
#177=EDGE_CURVE('',#146,#145,#71,.T.);
#178=EDGE_CURVE('',#147,#146,#72,.T.);
#179=EDGE_CURVE('',#148,#147,#73,.T.);
#180=EDGE_CURVE('',#149,#148,#74,.T.);
#181=EDGE_CURVE('',#150,#149,#75,.T.);
#182=EDGE_CURVE('',#151,#150,#76,.T.);
#183=EDGE_CURVE('',#152,#151,#77,.T.);
#184=EDGE_CURVE('',#153,#152,#78,.T.);
#185=EDGE_CURVE('',#143,#153,#79,.T.);
#186=EDGE_CURVE('',#154,#155,#80,.T.);
#187=EDGE_CURVE('',#155,#150,#81,.T.);
#188=EDGE_CURVE('',#149,#154,#82,.T.);
#189=EDGE_CURVE('',#156,#148,#83,.T.);
#190=EDGE_CURVE('',#154,#156,#84,.T.);
#191=EDGE_CURVE('',#157,#158,#85,.T.);
#192=EDGE_CURVE('',#158,#146,#86,.T.);
#193=EDGE_CURVE('',#145,#157,#87,.T.);
#194=EDGE_CURVE('',#157,#140,#88,.T.);
#195=EDGE_CURVE('',#159,#156,#89,.T.);
#196=EDGE_CURVE('',#147,#159,#90,.T.);
#197=EDGE_CURVE('',#160,#161,#19,.T.);
#198=EDGE_CURVE('',#161,#160,#20,.T.);
#199=EDGE_CURVE('',#161,#162,#91,.T.);
#200=EDGE_CURVE('',#162,#162,#21,.T.);
#201=EDGE_CURVE('',#163,#164,#22,.T.);
#202=EDGE_CURVE('',#164,#163,#23,.T.);
#203=EDGE_CURVE('',#164,#165,#92,.T.);
#204=EDGE_CURVE('',#165,#165,#24,.T.);
#205=EDGE_CURVE('',#152,#166,#93,.T.);
#206=EDGE_CURVE('',#167,#166,#94,.T.);
#207=EDGE_CURVE('',#153,#167,#95,.T.);
#208=EDGE_CURVE('',#144,#167,#96,.T.);
#209=EDGE_CURVE('',#159,#158,#97,.T.);
#210=EDGE_CURVE('',#168,#155,#98,.T.);
#211=EDGE_CURVE('',#151,#168,#99,.T.);
#212=EDGE_CURVE('',#166,#168,#100,.T.);
#213=ORIENTED_EDGE('',*,*,#169,.T.);
#214=ORIENTED_EDGE('',*,*,#170,.T.);
#215=ORIENTED_EDGE('',*,*,#171,.T.);
#216=ORIENTED_EDGE('',*,*,#172,.T.);
#217=ORIENTED_EDGE('',*,*,#172,.F.);
#218=ORIENTED_EDGE('',*,*,#173,.T.);
#219=ORIENTED_EDGE('',*,*,#174,.T.);
#220=ORIENTED_EDGE('',*,*,#175,.F.);
#221=ORIENTED_EDGE('',*,*,#171,.F.);
#222=ORIENTED_EDGE('',*,*,#176,.F.);
#223=ORIENTED_EDGE('',*,*,#177,.F.);
#224=ORIENTED_EDGE('',*,*,#178,.F.);
#225=ORIENTED_EDGE('',*,*,#179,.F.);
#226=ORIENTED_EDGE('',*,*,#180,.F.);
#227=ORIENTED_EDGE('',*,*,#181,.F.);
#228=ORIENTED_EDGE('',*,*,#182,.F.);
#229=ORIENTED_EDGE('',*,*,#183,.F.);
#230=ORIENTED_EDGE('',*,*,#184,.F.);
#231=ORIENTED_EDGE('',*,*,#185,.F.);
#232=ORIENTED_EDGE('',*,*,#173,.F.);
#233=ORIENTED_EDGE('',*,*,#186,.T.);
#234=ORIENTED_EDGE('',*,*,#187,.T.);
#235=ORIENTED_EDGE('',*,*,#181,.T.);
#236=ORIENTED_EDGE('',*,*,#188,.T.);
#237=ORIENTED_EDGE('',*,*,#188,.F.);
#238=ORIENTED_EDGE('',*,*,#180,.T.);
#239=ORIENTED_EDGE('',*,*,#189,.F.);
#240=ORIENTED_EDGE('',*,*,#190,.F.);
#241=ORIENTED_EDGE('',*,*,#191,.T.);
#242=ORIENTED_EDGE('',*,*,#192,.T.);
#243=ORIENTED_EDGE('',*,*,#177,.T.);
#244=ORIENTED_EDGE('',*,*,#193,.T.);
#245=ORIENTED_EDGE('',*,*,#170,.F.);
#246=ORIENTED_EDGE('',*,*,#194,.F.);
#247=ORIENTED_EDGE('',*,*,#193,.F.);
#248=ORIENTED_EDGE('',*,*,#176,.T.);
#249=ORIENTED_EDGE('',*,*,#195,.T.);
#250=ORIENTED_EDGE('',*,*,#189,.T.);
#251=ORIENTED_EDGE('',*,*,#179,.T.);
#252=ORIENTED_EDGE('',*,*,#196,.T.);
#253=ORIENTED_EDGE('',*,*,#197,.F.);
#254=ORIENTED_EDGE('',*,*,#198,.F.);
#255=ORIENTED_EDGE('',*,*,#199,.T.);
#256=ORIENTED_EDGE('',*,*,#200,.F.);
#257=ORIENTED_EDGE('',*,*,#199,.F.);
#258=ORIENTED_EDGE('',*,*,#201,.F.);
#259=ORIENTED_EDGE('',*,*,#202,.F.);
#260=ORIENTED_EDGE('',*,*,#203,.T.);
#261=ORIENTED_EDGE('',*,*,#204,.F.);
#262=ORIENTED_EDGE('',*,*,#203,.F.);
#263=ORIENTED_EDGE('',*,*,#184,.T.);
#264=ORIENTED_EDGE('',*,*,#205,.T.);
#265=ORIENTED_EDGE('',*,*,#206,.F.);
#266=ORIENTED_EDGE('',*,*,#207,.F.);
#267=ORIENTED_EDGE('',*,*,#197,.T.);
#268=ORIENTED_EDGE('',*,*,#198,.T.);
#269=ORIENTED_EDGE('',*,*,#201,.T.);
#270=ORIENTED_EDGE('',*,*,#202,.T.);
#271=ORIENTED_EDGE('',*,*,#185,.T.);
#272=ORIENTED_EDGE('',*,*,#207,.T.);
#273=ORIENTED_EDGE('',*,*,#208,.F.);
#274=ORIENTED_EDGE('',*,*,#174,.F.);
#275=ORIENTED_EDGE('',*,*,#192,.F.);
#276=ORIENTED_EDGE('',*,*,#209,.F.);
#277=ORIENTED_EDGE('',*,*,#196,.F.);
#278=ORIENTED_EDGE('',*,*,#178,.T.);
#279=ORIENTED_EDGE('',*,*,#200,.T.);
#280=ORIENTED_EDGE('',*,*,#204,.T.);
#281=ORIENTED_EDGE('',*,*,#187,.F.);
#282=ORIENTED_EDGE('',*,*,#210,.F.);
#283=ORIENTED_EDGE('',*,*,#211,.F.);
#284=ORIENTED_EDGE('',*,*,#182,.T.);
#285=ORIENTED_EDGE('',*,*,#183,.T.);
#286=ORIENTED_EDGE('',*,*,#211,.T.);
#287=ORIENTED_EDGE('',*,*,#212,.F.);
#288=ORIENTED_EDGE('',*,*,#205,.F.);
#289=ORIENTED_EDGE('',*,*,#169,.F.);
#290=ORIENTED_EDGE('',*,*,#175,.T.);
#291=ORIENTED_EDGE('',*,*,#208,.T.);
#292=ORIENTED_EDGE('',*,*,#206,.T.);
#293=ORIENTED_EDGE('',*,*,#212,.T.);
#294=ORIENTED_EDGE('',*,*,#210,.T.);
#295=ORIENTED_EDGE('',*,*,#186,.F.);
#296=ORIENTED_EDGE('',*,*,#190,.T.);
#297=ORIENTED_EDGE('',*,*,#195,.F.);
#298=ORIENTED_EDGE('',*,*,#209,.T.);
#299=ORIENTED_EDGE('',*,*,#191,.F.);
#300=ORIENTED_EDGE('',*,*,#194,.T.);
#301=PLANE('',#351);
#302=PLANE('',#352);
#303=PLANE('',#353);
#304=PLANE('',#354);
#305=PLANE('',#355);
#306=PLANE('',#356);
#307=PLANE('',#357);
#308=PLANE('',#358);
#309=PLANE('',#367);
#310=PLANE('',#368);
#311=PLANE('',#369);
#312=PLANE('',#370);
#313=PLANE('',#371);
#314=PLANE('',#372);
#315=ADVANCED_FACE('',(#27),#301,.T.);
#316=ADVANCED_FACE('',(#28),#302,.T.);
#317=ADVANCED_FACE('',(#29),#303,.F.);
#318=ADVANCED_FACE('',(#30),#304,.T.);
#319=ADVANCED_FACE('',(#31),#305,.T.);
#320=ADVANCED_FACE('',(#32),#306,.T.);
#321=ADVANCED_FACE('',(#33),#307,.T.);
#322=ADVANCED_FACE('',(#34),#308,.T.);
#323=ADVANCED_FACE('',(#35),#25,.F.);
#324=ADVANCED_FACE('',(#36),#26,.F.);
#325=ADVANCED_FACE('',(#37,#15,#16),#309,.T.);
#326=ADVANCED_FACE('',(#38),#310,.T.);
#327=ADVANCED_FACE('',(#39,#17,#18),#311,.T.);
#328=ADVANCED_FACE('',(#40),#312,.T.);
#329=ADVANCED_FACE('',(#41),#313,.T.);
#330=ADVANCED_FACE('',(#42),#314,.T.);
#331=CLOSED_SHELL('',(#315,#316,#317,#318,#319,#320,#321,#322,#323,#324,
#325,#326,#327,#328,#329,#330));
#332=DERIVED_UNIT_ELEMENT(#334,1.);
#333=DERIVED_UNIT_ELEMENT(#553,3.);
#334=(
MASS_UNIT()
NAMED_UNIT(*)
SI_UNIT($,.GRAM.)
);
#335=DERIVED_UNIT((#332,#333));
#336=MEASURE_REPRESENTATION_ITEM('density measure',
POSITIVE_RATIO_MEASURE(1.),#335);
#337=PROPERTY_DEFINITION_REPRESENTATION(#342,#339);
#338=PROPERTY_DEFINITION_REPRESENTATION(#343,#340);
#339=REPRESENTATION('material name',(#341),#550);
#340=REPRESENTATION('density',(#336),#550);
#341=DESCRIPTIVE_REPRESENTATION_ITEM('Allgemein','Allgemein');
#342=PROPERTY_DEFINITION('material property','material name',#560);
#343=PROPERTY_DEFINITION('material property','density of part',#560);
#344=DATE_TIME_ROLE('creation_date');
#345=APPLIED_DATE_AND_TIME_ASSIGNMENT(#346,#344,(#560));
#346=DATE_AND_TIME(#347,#348);
#347=CALENDAR_DATE(2020,29,1);
#348=LOCAL_TIME(13,56,56.,#349);
#349=COORDINATED_UNIVERSAL_TIME_OFFSET(0,0,.BEHIND.);
#350=AXIS2_PLACEMENT_3D('placement',#457,#373,#374);
#351=AXIS2_PLACEMENT_3D('',#458,#375,#376);
#352=AXIS2_PLACEMENT_3D('',#467,#381,#382);
#353=AXIS2_PLACEMENT_3D('',#473,#386,#387);
#354=AXIS2_PLACEMENT_3D('',#493,#398,#399);
#355=AXIS2_PLACEMENT_3D('',#499,#403,#404);
#356=AXIS2_PLACEMENT_3D('',#503,#407,#408);
#357=AXIS2_PLACEMENT_3D('',#509,#412,#413);
#358=AXIS2_PLACEMENT_3D('',#511,#415,#416);
#359=AXIS2_PLACEMENT_3D('',#515,#419,#420);
#360=AXIS2_PLACEMENT_3D('',#518,#421,#422);
#361=AXIS2_PLACEMENT_3D('',#519,#423,#424);
#362=AXIS2_PLACEMENT_3D('',#522,#426,#427);
#363=AXIS2_PLACEMENT_3D('',#523,#428,#429);
#364=AXIS2_PLACEMENT_3D('',#526,#430,#431);
#365=AXIS2_PLACEMENT_3D('',#527,#432,#433);
#366=AXIS2_PLACEMENT_3D('',#530,#435,#436);
#367=AXIS2_PLACEMENT_3D('',#531,#437,#438);
#368=AXIS2_PLACEMENT_3D('',#537,#442,#443);
#369=AXIS2_PLACEMENT_3D('',#539,#445,#446);
#370=AXIS2_PLACEMENT_3D('',#541,#448,#449);
#371=AXIS2_PLACEMENT_3D('',#545,#452,#453);
#372=AXIS2_PLACEMENT_3D('',#547,#455,#456);
#373=DIRECTION('axis',(0.,0.,1.));
#374=DIRECTION('refdir',(1.,0.,0.));
#375=DIRECTION('center_axis',(0.707106781186548,0.707106781186548,0.));
#376=DIRECTION('ref_axis',(0.,0.,-1.));
#377=DIRECTION('',(0.707106781186548,-0.707106781186548,0.));
#378=DIRECTION('',(0.,0.,-1.));
#379=DIRECTION('',(-0.707106781186548,0.707106781186548,0.));
#380=DIRECTION('',(0.,0.,1.));
#381=DIRECTION('center_axis',(-3.21803775253668E-16,1.,0.));
#382=DIRECTION('ref_axis',(-1.,-3.21803775253668E-16,0.));
#383=DIRECTION('',(-1.,-3.21803775253668E-16,0.));
#384=DIRECTION('',(0.,0.,1.));
#385=DIRECTION('',(-1.,-3.21803775253668E-16,0.));
#386=DIRECTION('center_axis',(0.,0.,1.));
#387=DIRECTION('ref_axis',(1.,0.,0.));
#388=DIRECTION('',(-1.73472347597681E-16,1.,0.));
#389=DIRECTION('',(0.707106781186548,0.707106781186547,0.));
#390=DIRECTION('',(1.,3.06161699786838E-16,0.));
#391=DIRECTION('',(0.707106781186548,-0.707106781186547,0.));
#392=DIRECTION('',(5.20417042793042E-16,-1.,0.));
#393=DIRECTION('',(-0.707106781186548,-0.707106781186547,0.));
#394=DIRECTION('',(-1.,-3.21803775253668E-16,0.));
#395=DIRECTION('',(3.96508223080413E-16,-1.,0.));
#396=DIRECTION('',(-1.,-2.70786103567111E-16,0.));
#397=DIRECTION('',(-3.96508223080413E-16,1.,0.));
#398=DIRECTION('center_axis',(-0.707106781186547,0.707106781186548,0.));
#399=DIRECTION('ref_axis',(0.,0.,1.));
#400=DIRECTION('',(0.707106781186548,0.707106781186547,0.));
#401=DIRECTION('',(0.,0.,-1.));
#402=DIRECTION('',(0.,0.,1.));
#403=DIRECTION('center_axis',(-1.,-5.20417042793042E-16,0.));
#404=DIRECTION('ref_axis',(5.20417042793042E-16,-1.,0.));
#405=DIRECTION('',(0.,0.,-1.));
#406=DIRECTION('',(5.20417042793042E-16,-1.,0.));
#407=DIRECTION('center_axis',(0.707106781186547,-0.707106781186548,0.));
#408=DIRECTION('ref_axis',(0.,0.,-1.));
#409=DIRECTION('',(-0.707106781186548,-0.707106781186547,0.));
#410=DIRECTION('',(0.,0.,-1.));
#411=DIRECTION('',(0.,0.,1.));
#412=DIRECTION('center_axis',(1.,1.73472347597681E-16,0.));
#413=DIRECTION('ref_axis',(-1.73472347597681E-16,1.,0.));
#414=DIRECTION('',(-1.73472347597681E-16,1.,0.));
#415=DIRECTION('center_axis',(-0.707106781186547,-0.707106781186548,0.));
#416=DIRECTION('ref_axis',(0.,0.,1.));
#417=DIRECTION('',(-0.707106781186548,0.707106781186547,0.));
#418=DIRECTION('',(0.,0.,1.));
#419=DIRECTION('center_axis',(-2.70786103567111E-16,1.,0.));
#420=DIRECTION('ref_axis',(1.,2.70786103567111E-16,0.));
#421=DIRECTION('center_axis',(2.70786103567111E-16,-1.,0.));
#422=DIRECTION('ref_axis',(1.,2.70786103567111E-16,0.));
#423=DIRECTION('center_axis',(2.70786103567111E-16,-1.,0.));
#424=DIRECTION('ref_axis',(1.,2.70786103567111E-16,0.));
#425=DIRECTION('',(2.70786103567111E-16,-1.,0.));
#426=DIRECTION('center_axis',(-3.06161699786838E-16,1.,0.));
#427=DIRECTION('ref_axis',(1.,2.70786103567111E-16,0.));
#428=DIRECTION('center_axis',(-2.70786103567111E-16,1.,0.));
#429=DIRECTION('ref_axis',(1.,2.70786103567111E-16,0.));
#430=DIRECTION('center_axis',(2.70786103567111E-16,-1.,0.));
#431=DIRECTION('ref_axis',(1.,2.70786103567111E-16,0.));
#432=DIRECTION('center_axis',(2.70786103567111E-16,-1.,0.));
#433=DIRECTION('ref_axis',(1.,2.70786103567111E-16,0.));
#434=DIRECTION('',(2.70786103567111E-16,-1.,0.));
#435=DIRECTION('center_axis',(-3.06161699786838E-16,1.,0.));
#436=DIRECTION('ref_axis',(1.,2.70786103567111E-16,0.));
#437=DIRECTION('center_axis',(-2.70786103567111E-16,1.,0.));
#438=DIRECTION('ref_axis',(-1.,-2.70786103567111E-16,0.));
#439=DIRECTION('',(0.,0.,1.));
#440=DIRECTION('',(-1.,-2.70786103567111E-16,0.));
#441=DIRECTION('',(0.,0.,1.));
#442=DIRECTION('center_axis',(1.,3.96508223080413E-16,0.));
#443=DIRECTION('ref_axis',(-3.96508223080413E-16,1.,0.));
#444=DIRECTION('',(-3.96508223080413E-16,1.,0.));
#445=DIRECTION('center_axis',(3.06161699786838E-16,-1.,0.));
#446=DIRECTION('ref_axis',(1.,3.06161699786838E-16,0.));
#447=DIRECTION('',(1.,3.06161699786838E-16,0.));
#448=DIRECTION('center_axis',(-3.21803775253668E-16,1.,0.));
#449=DIRECTION('ref_axis',(-1.,-3.21803775253668E-16,0.));
#450=DIRECTION('',(-1.,-3.21803775253668E-16,0.));
#451=DIRECTION('',(0.,0.,1.));
#452=DIRECTION('center_axis',(-1.,-3.96508223080413E-16,0.));
#453=DIRECTION('ref_axis',(3.96508223080413E-16,-1.,0.));
#454=DIRECTION('',(3.96508223080413E-16,-1.,0.));
#455=DIRECTION('center_axis',(0.,0.,1.));
#456=DIRECTION('ref_axis',(1.,0.,0.));
#457=CARTESIAN_POINT('',(0.,0.,0.));
#458=CARTESIAN_POINT('Origin',(3.325,3.075,0.));
#459=CARTESIAN_POINT('',(3.2,3.2,50.));
#460=CARTESIAN_POINT('',(3.45,2.95,50.));
#461=CARTESIAN_POINT('',(2.6875,3.7125,50.));
#462=CARTESIAN_POINT('',(3.45,2.95,0.));
#463=CARTESIAN_POINT('',(3.45,2.95,0.));
#464=CARTESIAN_POINT('',(3.2,3.2,0.));
#465=CARTESIAN_POINT('',(2.6875,3.7125,0.));
#466=CARTESIAN_POINT('',(3.2,3.2,0.));
#467=CARTESIAN_POINT('Origin',(3.45,3.2,0.));
#468=CARTESIAN_POINT('',(2.05,3.2,0.));
#469=CARTESIAN_POINT('',(3.45,3.2,0.));
#470=CARTESIAN_POINT('',(2.05,3.2,50.));
#471=CARTESIAN_POINT('',(2.05,3.2,0.));
#472=CARTESIAN_POINT('',(3.45,3.2,50.));
#473=CARTESIAN_POINT('Origin',(-8.32667268468867E-16,2.3,0.));
#474=CARTESIAN_POINT('',(3.45,0.250000000000002,0.));
#475=CARTESIAN_POINT('',(3.45,1.66533453693773E-15,0.));
#476=CARTESIAN_POINT('',(3.2,1.4808637912699E-15,0.));
#477=CARTESIAN_POINT('',(3.0375,-0.1625,0.));
#478=CARTESIAN_POINT('',(-3.2,-4.78571087365869E-16,0.));
#479=CARTESIAN_POINT('',(-3.45,-5.55111512312578E-16,0.));
#480=CARTESIAN_POINT('',(-3.45,0.249999999999999,0.));
#481=CARTESIAN_POINT('',(-3.0375,-0.162500000000001,0.));
#482=CARTESIAN_POINT('',(-3.45,2.95,0.));
#483=CARTESIAN_POINT('',(-3.45,3.2,0.));
#484=CARTESIAN_POINT('',(-3.2,3.2,0.));
#485=CARTESIAN_POINT('',(-2.6875,3.7125,0.));
#486=CARTESIAN_POINT('',(-2.05,3.2,0.));
#487=CARTESIAN_POINT('',(3.45,3.2,0.));
#488=CARTESIAN_POINT('',(-2.05,4.6,0.));
#489=CARTESIAN_POINT('',(-2.05,4.6,0.));
#490=CARTESIAN_POINT('',(2.05,4.6,0.));
#491=CARTESIAN_POINT('',(2.05,4.6,0.));
#492=CARTESIAN_POINT('',(2.05,3.2,0.));
#493=CARTESIAN_POINT('Origin',(-3.325,3.075,0.));
#494=CARTESIAN_POINT('',(-3.45,2.95,50.));
#495=CARTESIAN_POINT('',(-3.2,3.2,50.));
#496=CARTESIAN_POINT('',(-2.6875,3.7125,50.));
#497=CARTESIAN_POINT('',(-3.2,3.2,0.));
#498=CARTESIAN_POINT('',(-3.45,2.95,0.));
#499=CARTESIAN_POINT('Origin',(-3.45,3.2,0.));
#500=CARTESIAN_POINT('',(-3.45,0.249999999999999,50.));
#501=CARTESIAN_POINT('',(-3.45,0.249999999999999,0.));
#502=CARTESIAN_POINT('',(-3.45,3.2,50.));
#503=CARTESIAN_POINT('Origin',(3.325,0.125000000000002,0.));
#504=CARTESIAN_POINT('',(3.45,0.250000000000002,50.));
#505=CARTESIAN_POINT('',(3.2,1.4808637912699E-15,50.));
#506=CARTESIAN_POINT('',(3.0375,-0.1625,50.));
#507=CARTESIAN_POINT('',(3.2,1.49186218934005E-15,0.));
#508=CARTESIAN_POINT('',(3.45,0.250000000000002,0.));
#509=CARTESIAN_POINT('Origin',(3.45,1.55740421621661E-15,0.));
#510=CARTESIAN_POINT('',(3.45,1.66533453693773E-15,50.));
#511=CARTESIAN_POINT('Origin',(-3.325,0.124999999999999,0.));
#512=CARTESIAN_POINT('',(-3.2,-4.78571087365869E-16,50.));
#513=CARTESIAN_POINT('',(-3.0375,-0.162500000000001,50.));
#514=CARTESIAN_POINT('',(-3.2,-4.85722573273506E-16,0.));
#515=CARTESIAN_POINT('Origin',(1.20589269293315E-14,-46.0830346368487,45.));
#516=CARTESIAN_POINT('',(1.621,4.6,45.));
#517=CARTESIAN_POINT('',(-1.621,4.6,45.));
#518=CARTESIAN_POINT('Origin',(-1.66533453693773E-15,4.6,45.));
#519=CARTESIAN_POINT('Origin',(-1.66533453693773E-15,4.6,45.));
#520=CARTESIAN_POINT('',(-1.621,1.11022302462516E-15,45.));
#521=CARTESIAN_POINT('',(-1.62099999999999,-46.0830346368487,45.));
#522=CARTESIAN_POINT('Origin',(-4.19718460529021E-16,0.,45.));
#523=CARTESIAN_POINT('Origin',(1.23364826854877E-14,-46.0830346368487,5.));
#524=CARTESIAN_POINT('',(1.621,4.6,5.));
#525=CARTESIAN_POINT('',(-1.621,4.6,5.));
#526=CARTESIAN_POINT('Origin',(-1.38777878078145E-15,4.6,5.));
#527=CARTESIAN_POINT('Origin',(-1.38777878078145E-15,4.6,5.));
#528=CARTESIAN_POINT('',(-1.621,1.11022302462516E-15,5.));
#529=CARTESIAN_POINT('',(-1.62099999999999,-46.0830346368487,5.));
#530=CARTESIAN_POINT('Origin',(-1.42162704372732E-16,0.,5.));
#531=CARTESIAN_POINT('Origin',(2.05,4.6,0.));
#532=CARTESIAN_POINT('',(-2.05,4.6,50.));
#533=CARTESIAN_POINT('',(-2.05,4.6,0.));
#534=CARTESIAN_POINT('',(2.05,4.6,50.));
#535=CARTESIAN_POINT('',(2.05,4.6,50.));
#536=CARTESIAN_POINT('',(2.05,4.6,0.));
#537=CARTESIAN_POINT('Origin',(2.05,3.2,0.));
#538=CARTESIAN_POINT('',(2.05,3.2,50.));
#539=CARTESIAN_POINT('Origin',(-3.45,-5.55111512312578E-16,0.));
#540=CARTESIAN_POINT('',(-3.45,-5.55111512312578E-16,50.));
#541=CARTESIAN_POINT('Origin',(-2.05,3.2,0.));
#542=CARTESIAN_POINT('',(-2.05,3.2,50.));
#543=CARTESIAN_POINT('',(3.45,3.2,50.));
#544=CARTESIAN_POINT('',(-2.05,3.2,0.));
#545=CARTESIAN_POINT('Origin',(-2.05,4.6,0.));
#546=CARTESIAN_POINT('',(-2.05,4.6,50.));
#547=CARTESIAN_POINT('Origin',(-8.32667268468867E-16,2.3,50.));
#548=UNCERTAINTY_MEASURE_WITH_UNIT(LENGTH_MEASURE(0.01),#552,
'DISTANCE_ACCURACY_VALUE',
'Maximum model space distance between geometric entities at asserted c
onnectivities');
#549=UNCERTAINTY_MEASURE_WITH_UNIT(LENGTH_MEASURE(0.01),#552,
'DISTANCE_ACCURACY_VALUE',
'Maximum model space distance between geometric entities at asserted c
onnectivities');
#550=(
GEOMETRIC_REPRESENTATION_CONTEXT(3)
GLOBAL_UNCERTAINTY_ASSIGNED_CONTEXT((#548))
GLOBAL_UNIT_ASSIGNED_CONTEXT((#552,#554,#555))
REPRESENTATION_CONTEXT('','3D')
);
#551=(
GEOMETRIC_REPRESENTATION_CONTEXT(3)
GLOBAL_UNCERTAINTY_ASSIGNED_CONTEXT((#549))
GLOBAL_UNIT_ASSIGNED_CONTEXT((#552,#554,#555))
REPRESENTATION_CONTEXT('','3D')
);
#552=(
LENGTH_UNIT()
NAMED_UNIT(*)
SI_UNIT(.MILLI.,.METRE.)
);
#553=(
LENGTH_UNIT()
NAMED_UNIT(*)
SI_UNIT(.CENTI.,.METRE.)
);
#554=(
NAMED_UNIT(*)
PLANE_ANGLE_UNIT()
SI_UNIT($,.RADIAN.)
);
#555=(
NAMED_UNIT(*)
SI_UNIT($,.STERADIAN.)
SOLID_ANGLE_UNIT()
);
#556=SHAPE_DEFINITION_REPRESENTATION(#557,#558);
#557=PRODUCT_DEFINITION_SHAPE('',$,#560);
#558=SHAPE_REPRESENTATION('',(#350),#550);
#559=PRODUCT_DEFINITION_CONTEXT('part definition',#564,'design');
#560=PRODUCT_DEFINITION('590.0528.120','Nutenstein',#561,#559);
#561=PRODUCT_DEFINITION_FORMATION('',$,#566);
#562=PRODUCT_RELATED_PRODUCT_CATEGORY('Nutenstein','Nutenstein',(#566));
#563=APPLICATION_PROTOCOL_DEFINITION('international standard',
'automotive_design',2009,#564);
#564=APPLICATION_CONTEXT(
'Core Data for Automotive Mechanical Design Process');
#565=PRODUCT_CONTEXT('part definition',#564,'mechanical');
#566=PRODUCT('590.0528.120','Nutenstein','Nutenstein BEK-A',(#565));
#567=PRESENTATION_STYLE_ASSIGNMENT((#568));
#568=SURFACE_STYLE_USAGE(.BOTH.,#571);
#569=SURFACE_STYLE_RENDERING_WITH_PROPERTIES($,#575,(#570));
#570=SURFACE_STYLE_TRANSPARENT(0.);
#571=SURFACE_SIDE_STYLE('',(#572,#569));
#572=SURFACE_STYLE_FILL_AREA(#573);
#573=FILL_AREA_STYLE('',(#574));
#574=FILL_AREA_STYLE_COLOUR('',#575);
#575=COLOUR_RGB('',0.749019607843137,0.749019607843137,0.749019607843137);
ENDSEC;
END-ISO-10303-21;
