ISO-10303-21;
HEADER;
/* Generated by software containing ST-Developer
 * from STEP Tools, Inc. (www.steptools.com) 
 */

FILE_DESCRIPTION(
/* description */ (''),
/* implementation_level */ '2;1');

FILE_NAME(
/* name */ 
'G:\\Entwicklung\\Zeichnungen\\3D\\parts - step iges\\Adapterst\X\FCck
 M6M8.stp',
/* time_stamp */ '2020-08-19T09:30:25+02:00',
/* author */ ('S. Sandt'),
/* organization */ ('di-soric GmbH & Co. KG'),
/* preprocessor_version */ 'ST-DEVELOPER v18',
/* originating_system */ 'Autodesk Inventor 2020',
/* authorisation */ '');

FILE_SCHEMA (('AUTOMOTIVE_DESIGN { 1 0 10303 214 3 1 1 }'));
ENDSEC;

DATA;
#10=MECHANICAL_DESIGN_GEOMETRIC_PRESENTATION_REPRESENTATION('',(#13),#413);
#11=SHAPE_REPRESENTATION_RELATIONSHIP('SRR','None',#420,#12);
#12=ADVANCED_BREP_SHAPE_REPRESENTATION('',(#14),#412);
#13=STYLED_ITEM('',(#429),#14);
#14=MANIFOLD_SOLID_BREP('Volumenk\X\F6rper8',#225);
#15=FACE_BOUND('',#62,.T.);
#16=FACE_BOUND('',#65,.T.);
#17=FACE_BOUND('',#70,.T.);
#18=CONICAL_SURFACE('',#256,2.75,0.78539816339745);
#19=CONICAL_SURFACE('',#267,3.75,0.785398163397448);
#20=CYLINDRICAL_SURFACE('',#252,8.5);
#21=CYLINDRICAL_SURFACE('',#259,3.);
#22=CYLINDRICAL_SURFACE('',#264,3.15);
#23=CYLINDRICAL_SURFACE('',#270,4.);
#24=CIRCLE('',#247,8.5);
#25=CIRCLE('',#248,8.5);
#26=CIRCLE('',#251,8.5);
#27=CIRCLE('',#253,8.5);
#28=CIRCLE('',#254,8.5);
#29=CIRCLE('',#255,8.5);
#30=CIRCLE('',#257,2.5);
#31=CIRCLE('',#258,3.);
#32=CIRCLE('',#260,3.);
#33=CIRCLE('',#263,3.15);
#34=CIRCLE('',#265,3.15);
#35=CIRCLE('',#268,3.5);
#36=CIRCLE('',#269,4.);
#37=CIRCLE('',#271,4.);
#38=FACE_OUTER_BOUND('',#53,.T.);
#39=FACE_OUTER_BOUND('',#54,.T.);
#40=FACE_OUTER_BOUND('',#55,.T.);
#41=FACE_OUTER_BOUND('',#56,.T.);
#42=FACE_OUTER_BOUND('',#57,.T.);
#43=FACE_OUTER_BOUND('',#58,.T.);
#44=FACE_OUTER_BOUND('',#59,.T.);
#45=FACE_OUTER_BOUND('',#60,.T.);
#46=FACE_OUTER_BOUND('',#61,.T.);
#47=FACE_OUTER_BOUND('',#63,.T.);
#48=FACE_OUTER_BOUND('',#64,.T.);
#49=FACE_OUTER_BOUND('',#66,.T.);
#50=FACE_OUTER_BOUND('',#67,.T.);
#51=FACE_OUTER_BOUND('',#68,.T.);
#52=FACE_OUTER_BOUND('',#69,.T.);
#53=EDGE_LOOP('',(#145,#146,#147,#148));
#54=EDGE_LOOP('',(#149,#150,#151));
#55=EDGE_LOOP('',(#152,#153,#154,#155));
#56=EDGE_LOOP('',(#156,#157));
#57=EDGE_LOOP('',(#158,#159,#160,#161,#162,#163,#164,#165,#166,#167,#168,
#169));
#58=EDGE_LOOP('',(#170,#171,#172,#173));
#59=EDGE_LOOP('',(#174,#175,#176,#177));
#60=EDGE_LOOP('',(#178));
#61=EDGE_LOOP('',(#179));
#62=EDGE_LOOP('',(#180));
#63=EDGE_LOOP('',(#181,#182,#183,#184));
#64=EDGE_LOOP('',(#185,#186,#187,#188));
#65=EDGE_LOOP('',(#189));
#66=EDGE_LOOP('',(#190,#191,#192,#193));
#67=EDGE_LOOP('',(#194,#195,#196,#197));
#68=EDGE_LOOP('',(#198));
#69=EDGE_LOOP('',(#199));
#70=EDGE_LOOP('',(#200));
#71=LINE('',#352,#85);
#72=LINE('',#354,#86);
#73=LINE('',#356,#87);
#74=LINE('',#357,#88);
#75=LINE('',#365,#89);
#76=LINE('',#367,#90);
#77=LINE('',#369,#91);
#78=LINE('',#370,#92);
#79=LINE('',#375,#93);
#80=LINE('',#383,#94);
#81=LINE('',#387,#95);
#82=LINE('',#395,#96);
#83=LINE('',#402,#97);
#84=LINE('',#406,#98);
#85=VECTOR('',#278,10.);
#86=VECTOR('',#279,10.);
#87=VECTOR('',#280,10.);
#88=VECTOR('',#281,10.);
#89=VECTOR('',#290,10.);
#90=VECTOR('',#291,10.);
#91=VECTOR('',#292,10.);
#92=VECTOR('',#293,10.);
#93=VECTOR('',#300,8.5);
#94=VECTOR('',#311,2.75);
#95=VECTOR('',#316,3.);
#96=VECTOR('',#327,3.15);
#97=VECTOR('',#336,3.75);
#98=VECTOR('',#341,4.);
#99=VERTEX_POINT('',#350);
#100=VERTEX_POINT('',#351);
#101=VERTEX_POINT('',#353);
#102=VERTEX_POINT('',#355);
#103=VERTEX_POINT('',#359);
#104=VERTEX_POINT('',#363);
#105=VERTEX_POINT('',#364);
#106=VERTEX_POINT('',#366);
#107=VERTEX_POINT('',#368);
#108=VERTEX_POINT('',#374);
#109=VERTEX_POINT('',#380);
#110=VERTEX_POINT('',#382);
#111=VERTEX_POINT('',#386);
#112=VERTEX_POINT('',#391);
#113=VERTEX_POINT('',#394);
#114=VERTEX_POINT('',#399);
#115=VERTEX_POINT('',#401);
#116=VERTEX_POINT('',#405);
#117=EDGE_CURVE('',#99,#100,#71,.T.);
#118=EDGE_CURVE('',#101,#99,#72,.T.);
#119=EDGE_CURVE('',#101,#102,#73,.T.);
#120=EDGE_CURVE('',#100,#102,#74,.T.);
#121=EDGE_CURVE('',#102,#103,#24,.T.);
#122=EDGE_CURVE('',#103,#101,#25,.T.);
#123=EDGE_CURVE('',#104,#105,#75,.T.);
#124=EDGE_CURVE('',#106,#104,#76,.T.);
#125=EDGE_CURVE('',#106,#107,#77,.T.);
#126=EDGE_CURVE('',#105,#107,#78,.T.);
#127=EDGE_CURVE('',#107,#106,#26,.T.);
#128=EDGE_CURVE('',#103,#108,#79,.T.);
#129=EDGE_CURVE('',#108,#108,#27,.T.);
#130=EDGE_CURVE('',#99,#105,#28,.T.);
#131=EDGE_CURVE('',#104,#100,#29,.T.);
#132=EDGE_CURVE('',#109,#109,#30,.T.);
#133=EDGE_CURVE('',#109,#110,#80,.T.);
#134=EDGE_CURVE('',#110,#110,#31,.T.);
#135=EDGE_CURVE('',#110,#111,#81,.T.);
#136=EDGE_CURVE('',#111,#111,#32,.T.);
#137=EDGE_CURVE('',#112,#112,#33,.T.);
#138=EDGE_CURVE('',#112,#113,#82,.T.);
#139=EDGE_CURVE('',#113,#113,#34,.T.);
#140=EDGE_CURVE('',#114,#114,#35,.T.);
#141=EDGE_CURVE('',#114,#115,#83,.T.);
#142=EDGE_CURVE('',#115,#115,#36,.T.);
#143=EDGE_CURVE('',#115,#116,#84,.T.);
#144=EDGE_CURVE('',#116,#116,#37,.T.);
#145=ORIENTED_EDGE('',*,*,#117,.F.);
#146=ORIENTED_EDGE('',*,*,#118,.F.);
#147=ORIENTED_EDGE('',*,*,#119,.T.);
#148=ORIENTED_EDGE('',*,*,#120,.F.);
#149=ORIENTED_EDGE('',*,*,#121,.F.);
#150=ORIENTED_EDGE('',*,*,#119,.F.);
#151=ORIENTED_EDGE('',*,*,#122,.F.);
#152=ORIENTED_EDGE('',*,*,#123,.F.);
#153=ORIENTED_EDGE('',*,*,#124,.F.);
#154=ORIENTED_EDGE('',*,*,#125,.T.);
#155=ORIENTED_EDGE('',*,*,#126,.F.);
#156=ORIENTED_EDGE('',*,*,#127,.F.);
#157=ORIENTED_EDGE('',*,*,#125,.F.);
#158=ORIENTED_EDGE('',*,*,#120,.T.);
#159=ORIENTED_EDGE('',*,*,#121,.T.);
#160=ORIENTED_EDGE('',*,*,#128,.T.);
#161=ORIENTED_EDGE('',*,*,#129,.T.);
#162=ORIENTED_EDGE('',*,*,#128,.F.);
#163=ORIENTED_EDGE('',*,*,#122,.T.);
#164=ORIENTED_EDGE('',*,*,#118,.T.);
#165=ORIENTED_EDGE('',*,*,#130,.T.);
#166=ORIENTED_EDGE('',*,*,#126,.T.);
#167=ORIENTED_EDGE('',*,*,#127,.T.);
#168=ORIENTED_EDGE('',*,*,#124,.T.);
#169=ORIENTED_EDGE('',*,*,#131,.T.);
#170=ORIENTED_EDGE('',*,*,#132,.T.);
#171=ORIENTED_EDGE('',*,*,#133,.T.);
#172=ORIENTED_EDGE('',*,*,#134,.T.);
#173=ORIENTED_EDGE('',*,*,#133,.F.);
#174=ORIENTED_EDGE('',*,*,#134,.F.);
#175=ORIENTED_EDGE('',*,*,#135,.T.);
#176=ORIENTED_EDGE('',*,*,#136,.T.);
#177=ORIENTED_EDGE('',*,*,#135,.F.);
#178=ORIENTED_EDGE('',*,*,#132,.F.);
#179=ORIENTED_EDGE('',*,*,#137,.F.);
#180=ORIENTED_EDGE('',*,*,#136,.F.);
#181=ORIENTED_EDGE('',*,*,#137,.T.);
#182=ORIENTED_EDGE('',*,*,#138,.T.);
#183=ORIENTED_EDGE('',*,*,#139,.T.);
#184=ORIENTED_EDGE('',*,*,#138,.F.);
#185=ORIENTED_EDGE('',*,*,#117,.T.);
#186=ORIENTED_EDGE('',*,*,#131,.F.);
#187=ORIENTED_EDGE('',*,*,#123,.T.);
#188=ORIENTED_EDGE('',*,*,#130,.F.);
#189=ORIENTED_EDGE('',*,*,#139,.F.);
#190=ORIENTED_EDGE('',*,*,#140,.T.);
#191=ORIENTED_EDGE('',*,*,#141,.T.);
#192=ORIENTED_EDGE('',*,*,#142,.T.);
#193=ORIENTED_EDGE('',*,*,#141,.F.);
#194=ORIENTED_EDGE('',*,*,#142,.F.);
#195=ORIENTED_EDGE('',*,*,#143,.T.);
#196=ORIENTED_EDGE('',*,*,#144,.T.);
#197=ORIENTED_EDGE('',*,*,#143,.F.);
#198=ORIENTED_EDGE('',*,*,#140,.F.);
#199=ORIENTED_EDGE('',*,*,#129,.F.);
#200=ORIENTED_EDGE('',*,*,#144,.F.);
#201=PLANE('',#245);
#202=PLANE('',#246);
#203=PLANE('',#249);
#204=PLANE('',#250);
#205=PLANE('',#261);
#206=PLANE('',#262);
#207=PLANE('',#266);
#208=PLANE('',#272);
#209=PLANE('',#273);
#210=ADVANCED_FACE('',(#38),#201,.F.);
#211=ADVANCED_FACE('',(#39),#202,.T.);
#212=ADVANCED_FACE('',(#40),#203,.F.);
#213=ADVANCED_FACE('',(#41),#204,.T.);
#214=ADVANCED_FACE('',(#42),#20,.T.);
#215=ADVANCED_FACE('',(#43),#18,.T.);
#216=ADVANCED_FACE('',(#44),#21,.T.);
#217=ADVANCED_FACE('',(#45),#205,.T.);
#218=ADVANCED_FACE('',(#46,#15),#206,.T.);
#219=ADVANCED_FACE('',(#47),#22,.T.);
#220=ADVANCED_FACE('',(#48,#16),#207,.T.);
#221=ADVANCED_FACE('',(#49),#19,.T.);
#222=ADVANCED_FACE('',(#50),#23,.T.);
#223=ADVANCED_FACE('',(#51),#208,.F.);
#224=ADVANCED_FACE('',(#52,#17),#209,.T.);
#225=CLOSED_SHELL('',(#210,#211,#212,#213,#214,#215,#216,#217,#218,#219,
#220,#221,#222,#223,#224));
#226=DERIVED_UNIT_ELEMENT(#228,1.);
#227=DERIVED_UNIT_ELEMENT(#415,3.);
#228=(
MASS_UNIT()
NAMED_UNIT(*)
SI_UNIT($,.GRAM.)
);
#229=DERIVED_UNIT((#226,#227));
#230=MEASURE_REPRESENTATION_ITEM('density measure',
POSITIVE_RATIO_MEASURE(1.),#229);
#231=PROPERTY_DEFINITION_REPRESENTATION(#236,#233);
#232=PROPERTY_DEFINITION_REPRESENTATION(#237,#234);
#233=REPRESENTATION('material name',(#235),#412);
#234=REPRESENTATION('density',(#230),#412);
#235=DESCRIPTIVE_REPRESENTATION_ITEM('Allgemein','Allgemein');
#236=PROPERTY_DEFINITION('material property','material name',#422);
#237=PROPERTY_DEFINITION('material property','density of part',#422);
#238=DATE_TIME_ROLE('creation_date');
#239=APPLIED_DATE_AND_TIME_ASSIGNMENT(#240,#238,(#422));
#240=DATE_AND_TIME(#241,#242);
#241=CALENDAR_DATE(2020,19,8);
#242=LOCAL_TIME(7,15,54.,#243);
#243=COORDINATED_UNIVERSAL_TIME_OFFSET(0,0,.BEHIND.);
#244=AXIS2_PLACEMENT_3D('placement',#348,#274,#275);
#245=AXIS2_PLACEMENT_3D('',#349,#276,#277);
#246=AXIS2_PLACEMENT_3D('',#358,#282,#283);
#247=AXIS2_PLACEMENT_3D('',#360,#284,#285);
#248=AXIS2_PLACEMENT_3D('',#361,#286,#287);
#249=AXIS2_PLACEMENT_3D('',#362,#288,#289);
#250=AXIS2_PLACEMENT_3D('',#371,#294,#295);
#251=AXIS2_PLACEMENT_3D('',#372,#296,#297);
#252=AXIS2_PLACEMENT_3D('',#373,#298,#299);
#253=AXIS2_PLACEMENT_3D('',#376,#301,#302);
#254=AXIS2_PLACEMENT_3D('',#377,#303,#304);
#255=AXIS2_PLACEMENT_3D('',#378,#305,#306);
#256=AXIS2_PLACEMENT_3D('',#379,#307,#308);
#257=AXIS2_PLACEMENT_3D('',#381,#309,#310);
#258=AXIS2_PLACEMENT_3D('',#384,#312,#313);
#259=AXIS2_PLACEMENT_3D('',#385,#314,#315);
#260=AXIS2_PLACEMENT_3D('',#388,#317,#318);
#261=AXIS2_PLACEMENT_3D('',#389,#319,#320);
#262=AXIS2_PLACEMENT_3D('',#390,#321,#322);
#263=AXIS2_PLACEMENT_3D('',#392,#323,#324);
#264=AXIS2_PLACEMENT_3D('',#393,#325,#326);
#265=AXIS2_PLACEMENT_3D('',#396,#328,#329);
#266=AXIS2_PLACEMENT_3D('',#397,#330,#331);
#267=AXIS2_PLACEMENT_3D('',#398,#332,#333);
#268=AXIS2_PLACEMENT_3D('',#400,#334,#335);
#269=AXIS2_PLACEMENT_3D('',#403,#337,#338);
#270=AXIS2_PLACEMENT_3D('',#404,#339,#340);
#271=AXIS2_PLACEMENT_3D('',#407,#342,#343);
#272=AXIS2_PLACEMENT_3D('',#408,#344,#345);
#273=AXIS2_PLACEMENT_3D('',#409,#346,#347);
#274=DIRECTION('axis',(0.,0.,1.));
#275=DIRECTION('refdir',(1.,0.,0.));
#276=DIRECTION('center_axis',(1.,0.,0.));
#277=DIRECTION('ref_axis',(0.,-1.,0.));
#278=DIRECTION('',(0.,-1.,0.));
#279=DIRECTION('',(0.,0.,1.));
#280=DIRECTION('',(0.,-1.,0.));
#281=DIRECTION('',(0.,0.,-1.));
#282=DIRECTION('center_axis',(0.,0.,1.));
#283=DIRECTION('ref_axis',(1.,0.,0.));
#284=DIRECTION('center_axis',(0.,0.,-1.));
#285=DIRECTION('ref_axis',(1.,0.,0.));
#286=DIRECTION('center_axis',(0.,0.,-1.));
#287=DIRECTION('ref_axis',(1.,0.,0.));
#288=DIRECTION('center_axis',(-1.,0.,0.));
#289=DIRECTION('ref_axis',(0.,1.,0.));
#290=DIRECTION('',(0.,1.,0.));
#291=DIRECTION('',(0.,0.,1.));
#292=DIRECTION('',(0.,1.,0.));
#293=DIRECTION('',(0.,0.,-1.));
#294=DIRECTION('center_axis',(0.,0.,1.));
#295=DIRECTION('ref_axis',(1.,0.,0.));
#296=DIRECTION('center_axis',(0.,0.,-1.));
#297=DIRECTION('ref_axis',(1.,0.,0.));
#298=DIRECTION('center_axis',(0.,0.,1.));
#299=DIRECTION('ref_axis',(1.,0.,0.));
#300=DIRECTION('',(0.,0.,-1.));
#301=DIRECTION('center_axis',(0.,0.,1.));
#302=DIRECTION('ref_axis',(1.,0.,0.));
#303=DIRECTION('center_axis',(0.,0.,-1.));
#304=DIRECTION('ref_axis',(1.,0.,0.));
#305=DIRECTION('center_axis',(0.,0.,-1.));
#306=DIRECTION('ref_axis',(1.,0.,0.));
#307=DIRECTION('center_axis',(0.,0.,-1.));
#308=DIRECTION('ref_axis',(-1.,0.,0.));
#309=DIRECTION('center_axis',(0.,0.,-1.));
#310=DIRECTION('ref_axis',(-1.,0.,0.));
#311=DIRECTION('',(0.707106781186549,8.65956056235495E-17,-0.707106781186546));
#312=DIRECTION('center_axis',(0.,0.,1.));
#313=DIRECTION('ref_axis',(-1.,0.,0.));
#314=DIRECTION('center_axis',(0.,0.,-1.));
#315=DIRECTION('ref_axis',(-1.,0.,0.));
#316=DIRECTION('',(0.,0.,-1.));
#317=DIRECTION('center_axis',(0.,0.,1.));
#318=DIRECTION('ref_axis',(-1.,0.,0.));
#319=DIRECTION('center_axis',(0.,0.,1.));
#320=DIRECTION('ref_axis',(1.,0.,0.));
#321=DIRECTION('center_axis',(0.,0.,1.));
#322=DIRECTION('ref_axis',(1.,0.,0.));
#323=DIRECTION('center_axis',(0.,0.,-1.));
#324=DIRECTION('ref_axis',(-1.,0.,0.));
#325=DIRECTION('center_axis',(0.,0.,-1.));
#326=DIRECTION('ref_axis',(-1.,0.,0.));
#327=DIRECTION('',(0.,0.,-1.));
#328=DIRECTION('center_axis',(0.,0.,1.));
#329=DIRECTION('ref_axis',(-1.,0.,0.));
#330=DIRECTION('center_axis',(0.,0.,1.));
#331=DIRECTION('ref_axis',(1.,0.,0.));
#332=DIRECTION('center_axis',(0.,0.,1.));
#333=DIRECTION('ref_axis',(1.,0.,0.));
#334=DIRECTION('center_axis',(0.,0.,1.));
#335=DIRECTION('ref_axis',(1.,0.,0.));
#336=DIRECTION('',(-0.707106781186547,8.65956056235493E-17,0.707106781186548));
#337=DIRECTION('center_axis',(0.,0.,-1.));
#338=DIRECTION('ref_axis',(1.,0.,0.));
#339=DIRECTION('center_axis',(0.,0.,1.));
#340=DIRECTION('ref_axis',(1.,0.,0.));
#341=DIRECTION('',(0.,0.,1.));
#342=DIRECTION('center_axis',(0.,0.,-1.));
#343=DIRECTION('ref_axis',(1.,0.,0.));
#344=DIRECTION('center_axis',(0.,0.,1.));
#345=DIRECTION('ref_axis',(1.,0.,0.));
#346=DIRECTION('center_axis',(0.,0.,-1.));
#347=DIRECTION('ref_axis',(-1.,0.,0.));
#348=CARTESIAN_POINT('',(0.,0.,0.));
#349=CARTESIAN_POINT('Origin',(-7.,4.8218253804965,17.));
#350=CARTESIAN_POINT('',(-7.,4.8218253804965,17.));
#351=CARTESIAN_POINT('',(-7.,-4.8218253804965,17.));
#352=CARTESIAN_POINT('',(-7.,2.41091269024825,17.));
#353=CARTESIAN_POINT('',(-7.,4.8218253804965,11.3));
#354=CARTESIAN_POINT('',(-7.,4.82182538049648,0.));
#355=CARTESIAN_POINT('',(-7.,-4.8218253804965,11.3));
#356=CARTESIAN_POINT('',(-7.,-4.8218253804965,11.3));
#357=CARTESIAN_POINT('',(-7.,-4.82182538049648,0.));
#358=CARTESIAN_POINT('Origin',(-7.75,0.,11.3));
#359=CARTESIAN_POINT('',(-8.5,-1.04094977927525E-15,11.3));
#360=CARTESIAN_POINT('Origin',(0.,0.,11.3));
#361=CARTESIAN_POINT('Origin',(0.,0.,11.3));
#362=CARTESIAN_POINT('Origin',(7.,-4.8218253804965,17.));
#363=CARTESIAN_POINT('',(7.,-4.8218253804965,17.));
#364=CARTESIAN_POINT('',(7.,4.8218253804965,17.));
#365=CARTESIAN_POINT('',(7.,-2.41091269024825,17.));
#366=CARTESIAN_POINT('',(7.,-4.8218253804965,11.3));
#367=CARTESIAN_POINT('',(7.,-4.82182538049648,0.));
#368=CARTESIAN_POINT('',(7.,4.8218253804965,11.3));
#369=CARTESIAN_POINT('',(7.,4.8218253804965,11.3));
#370=CARTESIAN_POINT('',(7.,4.82182538049648,0.));
#371=CARTESIAN_POINT('Origin',(7.75,0.,11.3));
#372=CARTESIAN_POINT('Origin',(0.,0.,11.3));
#373=CARTESIAN_POINT('Origin',(0.,0.,0.));
#374=CARTESIAN_POINT('',(-8.5,0.,9.));
#375=CARTESIAN_POINT('',(-8.5,-1.04094977927525E-15,0.));
#376=CARTESIAN_POINT('Origin',(0.,0.,9.));
#377=CARTESIAN_POINT('Origin',(0.,0.,17.));
#378=CARTESIAN_POINT('Origin',(0.,0.,17.));
#379=CARTESIAN_POINT('Origin',(0.,0.,27.25));
#380=CARTESIAN_POINT('',(2.5,-3.06161699786838E-16,27.5));
#381=CARTESIAN_POINT('Origin',(0.,0.,27.5));
#382=CARTESIAN_POINT('',(3.,3.67394039744206E-16,27.));
#383=CARTESIAN_POINT('',(2.75,3.36777869765522E-16,27.25));
#384=CARTESIAN_POINT('Origin',(0.,0.,27.));
#385=CARTESIAN_POINT('Origin',(0.,0.,27.5));
#386=CARTESIAN_POINT('',(3.,3.67394039744206E-16,21.5));
#387=CARTESIAN_POINT('',(3.,-3.67394039744206E-16,27.5));
#388=CARTESIAN_POINT('Origin',(0.,0.,21.5));
#389=CARTESIAN_POINT('Origin',(0.,0.,27.5));
#390=CARTESIAN_POINT('Origin',(0.,0.,21.5));
#391=CARTESIAN_POINT('',(3.15,0.,21.5));
#392=CARTESIAN_POINT('Origin',(0.,0.,21.5));
#393=CARTESIAN_POINT('Origin',(0.,0.,27.5));
#394=CARTESIAN_POINT('',(3.15,3.85763741731416E-16,17.));
#395=CARTESIAN_POINT('',(3.15,-3.85763741731416E-16,27.5));
#396=CARTESIAN_POINT('Origin',(0.,0.,17.));
#397=CARTESIAN_POINT('Origin',(0.,0.,17.));
#398=CARTESIAN_POINT('Origin',(0.,0.,0.25));
#399=CARTESIAN_POINT('',(-3.5,-4.28626379701574E-16,0.));
#400=CARTESIAN_POINT('Origin',(0.,0.,0.));
#401=CARTESIAN_POINT('',(-4.,4.89858719658941E-16,0.5));
#402=CARTESIAN_POINT('',(-3.75,4.59242549680257E-16,0.25));
#403=CARTESIAN_POINT('Origin',(0.,0.,0.5));
#404=CARTESIAN_POINT('Origin',(0.,0.,0.));
#405=CARTESIAN_POINT('',(-4.,4.89858719658941E-16,9.));
#406=CARTESIAN_POINT('',(-4.,-4.89858719658941E-16,0.));
#407=CARTESIAN_POINT('Origin',(0.,0.,9.));
#408=CARTESIAN_POINT('Origin',(0.,0.,0.));
#409=CARTESIAN_POINT('Origin',(0.,0.,9.));
#410=UNCERTAINTY_MEASURE_WITH_UNIT(LENGTH_MEASURE(0.01),#414,
'DISTANCE_ACCURACY_VALUE',
'Maximum model space distance between geometric entities at asserted c
onnectivities');
#411=UNCERTAINTY_MEASURE_WITH_UNIT(LENGTH_MEASURE(0.01),#414,
'DISTANCE_ACCURACY_VALUE',
'Maximum model space distance between geometric entities at asserted c
onnectivities');
#412=(
GEOMETRIC_REPRESENTATION_CONTEXT(3)
GLOBAL_UNCERTAINTY_ASSIGNED_CONTEXT((#410))
GLOBAL_UNIT_ASSIGNED_CONTEXT((#414,#416,#417))
REPRESENTATION_CONTEXT('','3D')
);
#413=(
GEOMETRIC_REPRESENTATION_CONTEXT(3)
GLOBAL_UNCERTAINTY_ASSIGNED_CONTEXT((#411))
GLOBAL_UNIT_ASSIGNED_CONTEXT((#414,#416,#417))
REPRESENTATION_CONTEXT('','3D')
);
#414=(
LENGTH_UNIT()
NAMED_UNIT(*)
SI_UNIT(.MILLI.,.METRE.)
);
#415=(
LENGTH_UNIT()
NAMED_UNIT(*)
SI_UNIT(.CENTI.,.METRE.)
);
#416=(
NAMED_UNIT(*)
PLANE_ANGLE_UNIT()
SI_UNIT($,.RADIAN.)
);
#417=(
NAMED_UNIT(*)
SI_UNIT($,.STERADIAN.)
SOLID_ANGLE_UNIT()
);
#418=SHAPE_DEFINITION_REPRESENTATION(#419,#420);
#419=PRODUCT_DEFINITION_SHAPE('',$,#422);
#420=SHAPE_REPRESENTATION('',(#244),#412);
#421=PRODUCT_DEFINITION_CONTEXT('part definition',#426,'design');
#422=PRODUCT_DEFINITION('Adapter','Adapter',#423,#421);
#423=PRODUCT_DEFINITION_FORMATION('',$,#428);
#424=PRODUCT_RELATED_PRODUCT_CATEGORY('Adapter','Adapter',(#428));
#425=APPLICATION_PROTOCOL_DEFINITION('international standard',
'automotive_design',2009,#426);
#426=APPLICATION_CONTEXT(
'Core Data for Automotive Mechanical Design Process');
#427=PRODUCT_CONTEXT('part definition',#426,'mechanical');
#428=PRODUCT('Adapter','Adapter',$,(#427));
#429=PRESENTATION_STYLE_ASSIGNMENT((#430));
#430=SURFACE_STYLE_USAGE(.BOTH.,#433);
#431=SURFACE_STYLE_RENDERING_WITH_PROPERTIES($,#437,(#432));
#432=SURFACE_STYLE_TRANSPARENT(0.);
#433=SURFACE_SIDE_STYLE('',(#434,#431));
#434=SURFACE_STYLE_FILL_AREA(#435);
#435=FILL_AREA_STYLE('',(#436));
#436=FILL_AREA_STYLE_COLOUR('',#437);
#437=COLOUR_RGB('',0.749019607843137,0.749019607843137,0.749019607843137);
ENDSEC;
END-ISO-10303-21;
