ISO-10303-21;
HEADER;
/* Generated by software containing ST-Developer
 * from STEP Tools, Inc. (www.steptools.com) 
 */

FILE_DESCRIPTION(
/* description */ (''),
/* implementation_level */ '2;1');

FILE_NAME(
/* name */ 'KJ1,5_G6,5EB16.stp',
/* time_stamp */ '2026-01-07T13:20:55+01:00',
/* author */ ('L43FV9'),
/* organization */ (''),
/* preprocessor_version */ 'ST-DEVELOPER v20.1',
/* originating_system */ 'Autodesk Inventor 2026',
/* authorisation */ '');

FILE_SCHEMA (('AUTOMOTIVE_DESIGN { 1 0 10303 214 3 1 1 }'));
ENDSEC;

DATA;
#10=MECHANICAL_DESIGN_GEOMETRIC_PRESENTATION_REPRESENTATION('',(#78,#79,
#80,#81,#82,#83,#84),#182);
#11=SHAPE_REPRESENTATION_RELATIONSHIP('SRR','None',#189,#12);
#12=ADVANCED_BREP_SHAPE_REPRESENTATION('',(#13),#181);
#13=MANIFOLD_SOLID_BREP('Volumenk\X\F6rper1',#91);
#14=TOROIDAL_SURFACE('',#120,3.,0.25);
#15=LINE('',#167,#17);
#16=LINE('',#177,#18);
#17=VECTOR('',#139,3.25);
#18=VECTOR('',#154,1.475);
#19=CYLINDRICAL_SURFACE('',#117,3.25);
#20=CYLINDRICAL_SURFACE('',#124,1.475);
#21=FACE_BOUND('',#29,.T.);
#22=FACE_OUTER_BOUND('',#28,.T.);
#23=FACE_OUTER_BOUND('',#30,.T.);
#24=FACE_OUTER_BOUND('',#31,.T.);
#25=FACE_OUTER_BOUND('',#32,.T.);
#26=FACE_OUTER_BOUND('',#33,.T.);
#27=FACE_OUTER_BOUND('',#34,.T.);
#28=EDGE_LOOP('',(#57));
#29=EDGE_LOOP('',(#58));
#30=EDGE_LOOP('',(#59,#60,#61,#62,#63));
#31=EDGE_LOOP('',(#64,#65,#66,#67,#68));
#32=EDGE_LOOP('',(#69));
#33=EDGE_LOOP('',(#70,#71,#72,#73));
#34=EDGE_LOOP('',(#74));
#35=CIRCLE('',#115,3.25);
#36=CIRCLE('',#116,1.475);
#37=CIRCLE('',#118,3.25);
#38=CIRCLE('',#119,3.25);
#39=CIRCLE('',#121,3.);
#40=CIRCLE('',#122,0.25);
#41=CIRCLE('',#125,1.475);
#42=VERTEX_POINT('',#159);
#43=VERTEX_POINT('',#161);
#44=VERTEX_POINT('',#164);
#45=VERTEX_POINT('',#165);
#46=VERTEX_POINT('',#170);
#47=VERTEX_POINT('',#175);
#48=EDGE_CURVE('',#42,#42,#35,.T.);
#49=EDGE_CURVE('',#43,#43,#36,.T.);
#50=EDGE_CURVE('',#44,#45,#37,.T.);
#51=EDGE_CURVE('',#44,#42,#15,.T.);
#52=EDGE_CURVE('',#45,#44,#38,.T.);
#53=EDGE_CURVE('',#46,#46,#39,.T.);
#54=EDGE_CURVE('',#46,#45,#40,.T.);
#55=EDGE_CURVE('',#47,#47,#41,.T.);
#56=EDGE_CURVE('',#47,#43,#16,.T.);
#57=ORIENTED_EDGE('',*,*,#48,.T.);
#58=ORIENTED_EDGE('',*,*,#49,.T.);
#59=ORIENTED_EDGE('',*,*,#50,.F.);
#60=ORIENTED_EDGE('',*,*,#51,.T.);
#61=ORIENTED_EDGE('',*,*,#48,.F.);
#62=ORIENTED_EDGE('',*,*,#51,.F.);
#63=ORIENTED_EDGE('',*,*,#52,.F.);
#64=ORIENTED_EDGE('',*,*,#53,.F.);
#65=ORIENTED_EDGE('',*,*,#54,.T.);
#66=ORIENTED_EDGE('',*,*,#52,.T.);
#67=ORIENTED_EDGE('',*,*,#50,.T.);
#68=ORIENTED_EDGE('',*,*,#54,.F.);
#69=ORIENTED_EDGE('',*,*,#53,.T.);
#70=ORIENTED_EDGE('',*,*,#55,.T.);
#71=ORIENTED_EDGE('',*,*,#56,.T.);
#72=ORIENTED_EDGE('',*,*,#49,.F.);
#73=ORIENTED_EDGE('',*,*,#56,.F.);
#74=ORIENTED_EDGE('',*,*,#55,.F.);
#75=PLANE('',#114);
#76=PLANE('',#123);
#77=PLANE('',#126);
#78=STYLED_ITEM('',(#199),#85);
#79=STYLED_ITEM('',(#199),#86);
#80=STYLED_ITEM('',(#200),#87);
#81=STYLED_ITEM('',(#200),#88);
#82=STYLED_ITEM('',(#201),#89);
#83=STYLED_ITEM('',(#201),#90);
#84=STYLED_ITEM('',(#198),#13);
#85=ADVANCED_FACE('',(#22,#21),#75,.T.);
#86=ADVANCED_FACE('',(#23),#19,.T.);
#87=ADVANCED_FACE('',(#24),#14,.T.);
#88=ADVANCED_FACE('',(#25),#76,.T.);
#89=ADVANCED_FACE('',(#26),#20,.T.);
#90=ADVANCED_FACE('',(#27),#77,.F.);
#91=CLOSED_SHELL('',(#85,#86,#87,#88,#89,#90));
#92=DERIVED_UNIT_ELEMENT(#95,1.);
#93=DERIVED_UNIT_ELEMENT(#184,-3.);
#94=DIMENSIONAL_EXPONENTS(0.,1.,0.,0.,0.,0.,0.);
#95=(
CONVERSION_BASED_UNIT('gram',#97)
MASS_UNIT()
NAMED_UNIT(#94)
);
#96=(
MASS_UNIT()
NAMED_UNIT(*)
SI_UNIT(.KILO.,.GRAM.)
);
#97=MASS_MEASURE_WITH_UNIT(MASS_MEASURE(0.001),#96);
#98=DERIVED_UNIT((#92,#93));
#99=MEASURE_REPRESENTATION_ITEM('density measure',
POSITIVE_RATIO_MEASURE(1.),#98);
#100=PROPERTY_DEFINITION_REPRESENTATION(#105,#102);
#101=PROPERTY_DEFINITION_REPRESENTATION(#106,#103);
#102=REPRESENTATION('material name',(#104),#181);
#103=REPRESENTATION('density',(#99),#181);
#104=DESCRIPTIVE_REPRESENTATION_ITEM('Generisch','Generisch');
#105=PROPERTY_DEFINITION('material property','material name',#191);
#106=PROPERTY_DEFINITION('material property','density of part',#191);
#107=DATE_TIME_ROLE('creation_date');
#108=APPLIED_DATE_AND_TIME_ASSIGNMENT(#109,#107,(#191));
#109=DATE_AND_TIME(#110,#111);
#110=CALENDAR_DATE(2026,7,1);
#111=LOCAL_TIME(0,0,0.,#112);
#112=COORDINATED_UNIVERSAL_TIME_OFFSET(0,0,.BEHIND.);
#113=AXIS2_PLACEMENT_3D('',#157,#127,#128);
#114=AXIS2_PLACEMENT_3D('',#158,#129,#130);
#115=AXIS2_PLACEMENT_3D('',#160,#131,#132);
#116=AXIS2_PLACEMENT_3D('',#162,#133,#134);
#117=AXIS2_PLACEMENT_3D('',#163,#135,#136);
#118=AXIS2_PLACEMENT_3D('',#166,#137,#138);
#119=AXIS2_PLACEMENT_3D('',#168,#140,#141);
#120=AXIS2_PLACEMENT_3D('',#169,#142,#143);
#121=AXIS2_PLACEMENT_3D('',#171,#144,#145);
#122=AXIS2_PLACEMENT_3D('',#172,#146,#147);
#123=AXIS2_PLACEMENT_3D('',#173,#148,#149);
#124=AXIS2_PLACEMENT_3D('',#174,#150,#151);
#125=AXIS2_PLACEMENT_3D('',#176,#152,#153);
#126=AXIS2_PLACEMENT_3D('',#178,#155,#156);
#127=DIRECTION('axis',(0.,0.,1.));
#128=DIRECTION('refdir',(1.,0.,0.));
#129=DIRECTION('center_axis',(1.,0.,0.));
#130=DIRECTION('ref_axis',(0.,0.,-1.));
#131=DIRECTION('center_axis',(1.,0.,0.));
#132=DIRECTION('ref_axis',(0.,1.,0.));
#133=DIRECTION('center_axis',(-1.,-1.47739151410055E-16,-8.03581576743645E-18));
#134=DIRECTION('ref_axis',(-6.59152061620409E-17,0.39621910112168,0.918155991052897));
#135=DIRECTION('center_axis',(-1.,-4.37591848998632E-17,-2.06741377391369E-16));
#136=DIRECTION('ref_axis',(-1.54337138551322E-16,-0.517041289823896,0.855960457391136));
#137=DIRECTION('center_axis',(-1.,-4.37591848998632E-17,-2.06741377391369E-16));
#138=DIRECTION('ref_axis',(-1.54337138551322E-16,-0.517041289823896,0.855960457391136));
#139=DIRECTION('',(1.,4.37591848998632E-17,2.06741377391369E-16));
#140=DIRECTION('center_axis',(-1.,-4.37591848998632E-17,-2.06741377391369E-16));
#141=DIRECTION('ref_axis',(-1.54337138551322E-16,-0.517041289823896,0.855960457391136));
#142=DIRECTION('center_axis',(-1.,-4.37591848998632E-17,-2.06741377391369E-16));
#143=DIRECTION('ref_axis',(1.43047966634395E-16,-0.855960457391136,-0.517041289823896));
#144=DIRECTION('center_axis',(-1.,-4.37591848998632E-17,-2.06741377391369E-16));
#145=DIRECTION('ref_axis',(-1.54337138551322E-16,-0.517041289823896,0.855960457391136));
#146=DIRECTION('center_axis',(1.54337138551322E-16,0.517041289823896,-0.855960457391136));
#147=DIRECTION('ref_axis',(-1.44115488773458E-16,0.855960457391136,0.517041289823896));
#148=DIRECTION('center_axis',(-1.,-4.37591848998632E-17,-2.06741377391369E-16));
#149=DIRECTION('ref_axis',(1.44349960348353E-16,-0.855960457391136,-0.517041289823896));
#150=DIRECTION('center_axis',(1.,1.47739151410055E-16,8.03581576743645E-18));
#151=DIRECTION('ref_axis',(-6.59152061620409E-17,0.39621910112168,0.918155991052897));
#152=DIRECTION('center_axis',(-1.,-1.47739151410055E-16,-8.03581576743645E-18));
#153=DIRECTION('ref_axis',(-6.59152061620409E-17,0.39621910112168,0.918155991052897));
#154=DIRECTION('',(-1.,-1.47739151410055E-16,-8.03581576743645E-18));
#155=DIRECTION('center_axis',(-1.,-1.47739151410055E-16,-8.03581576743645E-18));
#156=DIRECTION('ref_axis',(-6.59152061620409E-17,0.39621910112168,0.918155991052897));
#157=CARTESIAN_POINT('',(0.,0.,0.));
#158=CARTESIAN_POINT('Origin',(16.,3.0875,0.));
#159=CARTESIAN_POINT('',(16.,1.68038419192766,-2.78187148652119));
#160=CARTESIAN_POINT('Origin',(16.,0.,0.));
#161=CARTESIAN_POINT('',(16.,-0.584423174154478,-1.35428008680303));
#162=CARTESIAN_POINT('Origin',(16.,6.37593585604253E-16,-5.02341532697848E-15));
#163=CARTESIAN_POINT('Origin',(-0.0249999999999987,1.20337758474617E-17,
5.68538787826268E-17));
#164=CARTESIAN_POINT('',(-0.049999999999998,1.68038419192766,-2.78187148652119));
#165=CARTESIAN_POINT('',(-0.0499999999999989,2.78187148652119,1.68038419192766));
#166=CARTESIAN_POINT('Origin',(-0.0499999999999985,1.09397962249652E-17,
5.16853443478426E-17));
#167=CARTESIAN_POINT('',(-0.0249999999999982,1.68038419192766,-2.78187148652119));
#168=CARTESIAN_POINT('Origin',(-0.0499999999999985,1.09397962249652E-17,
5.16853443478426E-17));
#169=CARTESIAN_POINT('Origin',(-0.0499999999999986,1.09397962249651E-17,
5.16853443478426E-17));
#170=CARTESIAN_POINT('',(-0.299999999999999,2.56788137217341,1.55112386947169));
#171=CARTESIAN_POINT('Origin',(-0.299999999999999,-6.5265089842897E-31,
2.84246353767385E-31));
#172=CARTESIAN_POINT('Origin',(-0.049999999999999,2.56788137217341,1.55112386947169));
#173=CARTESIAN_POINT('Origin',(-0.299999999999999,-0.775561934735844,1.2839406860867));
#174=CARTESIAN_POINT('Origin',(16.,6.37593585604253E-16,-5.02341532697848E-15));
#175=CARTESIAN_POINT('',(76.,-0.584423174154469,-1.35428008680303));
#176=CARTESIAN_POINT('Origin',(76.,9.50194267020755E-15,-4.54126638093229E-15));
#177=CARTESIAN_POINT('',(16.,-0.584423174154478,-1.35428008680303));
#178=CARTESIAN_POINT('Origin',(76.,9.50194267020755E-15,-4.54126638093229E-15));
#179=UNCERTAINTY_MEASURE_WITH_UNIT(LENGTH_MEASURE(0.01),#183,
'DISTANCE_ACCURACY_VALUE',
'Maximum model space distance between geometric entities at asserted c
onnectivities');
#180=UNCERTAINTY_MEASURE_WITH_UNIT(LENGTH_MEASURE(0.01),#183,
'DISTANCE_ACCURACY_VALUE',
'Maximum model space distance between geometric entities at asserted c
onnectivities');
#181=(
GEOMETRIC_REPRESENTATION_CONTEXT(3)
GLOBAL_UNCERTAINTY_ASSIGNED_CONTEXT((#179))
GLOBAL_UNIT_ASSIGNED_CONTEXT((#183,#185,#186))
REPRESENTATION_CONTEXT('','3D')
);
#182=(
GEOMETRIC_REPRESENTATION_CONTEXT(3)
GLOBAL_UNCERTAINTY_ASSIGNED_CONTEXT((#180))
GLOBAL_UNIT_ASSIGNED_CONTEXT((#183,#185,#186))
REPRESENTATION_CONTEXT('','3D')
);
#183=(
LENGTH_UNIT()
NAMED_UNIT(*)
SI_UNIT(.MILLI.,.METRE.)
);
#184=(
LENGTH_UNIT()
NAMED_UNIT(*)
SI_UNIT(.CENTI.,.METRE.)
);
#185=(
NAMED_UNIT(*)
PLANE_ANGLE_UNIT()
SI_UNIT($,.RADIAN.)
);
#186=(
NAMED_UNIT(*)
SI_UNIT($,.STERADIAN.)
SOLID_ANGLE_UNIT()
);
#187=SHAPE_DEFINITION_REPRESENTATION(#188,#189);
#188=PRODUCT_DEFINITION_SHAPE('',$,#191);
#189=SHAPE_REPRESENTATION('',(#113),#181);
#190=PRODUCT_DEFINITION_CONTEXT('part definition',#195,'design');
#191=PRODUCT_DEFINITION('KJ1,5_G6,5EB16_Vereinfachen_1',
'KJ1,5_G6,5EB16_Vereinfachen_1',#192,#190);
#192=PRODUCT_DEFINITION_FORMATION('',$,#197);
#193=PRODUCT_RELATED_PRODUCT_CATEGORY('KJ1,5_G6,5EB16_Vereinfachen_1',
'KJ1,5_G6,5EB16_Vereinfachen_1',(#197));
#194=APPLICATION_PROTOCOL_DEFINITION('international standard',
'automotive_design',2009,#195);
#195=APPLICATION_CONTEXT(
'Core Data for Automotive Mechanical Design Process');
#196=PRODUCT_CONTEXT('part definition',#195,'mechanical');
#197=PRODUCT('KJ1,5_G6,5EB16_Vereinfachen_1',
'KJ1,5_G6,5EB16_Vereinfachen_1',$,(#196));
#198=PRESENTATION_STYLE_ASSIGNMENT((#202));
#199=PRESENTATION_STYLE_ASSIGNMENT((#203));
#200=PRESENTATION_STYLE_ASSIGNMENT((#204));
#201=PRESENTATION_STYLE_ASSIGNMENT((#205));
#202=SURFACE_STYLE_USAGE(.BOTH.,#214);
#203=SURFACE_STYLE_USAGE(.BOTH.,#215);
#204=SURFACE_STYLE_USAGE(.BOTH.,#216);
#205=SURFACE_STYLE_USAGE(.BOTH.,#217);
#206=SURFACE_STYLE_RENDERING_WITH_PROPERTIES($,#230,(#210));
#207=SURFACE_STYLE_RENDERING_WITH_PROPERTIES($,#231,(#211));
#208=SURFACE_STYLE_RENDERING_WITH_PROPERTIES($,#232,(#212));
#209=SURFACE_STYLE_RENDERING_WITH_PROPERTIES($,#233,(#213));
#210=SURFACE_STYLE_TRANSPARENT(0.);
#211=SURFACE_STYLE_TRANSPARENT(0.);
#212=SURFACE_STYLE_TRANSPARENT(0.);
#213=SURFACE_STYLE_TRANSPARENT(0.);
#214=SURFACE_SIDE_STYLE('',(#218,#206));
#215=SURFACE_SIDE_STYLE('',(#219,#207));
#216=SURFACE_SIDE_STYLE('',(#220,#208));
#217=SURFACE_SIDE_STYLE('',(#221,#209));
#218=SURFACE_STYLE_FILL_AREA(#222);
#219=SURFACE_STYLE_FILL_AREA(#223);
#220=SURFACE_STYLE_FILL_AREA(#224);
#221=SURFACE_STYLE_FILL_AREA(#225);
#222=FILL_AREA_STYLE('',(#226));
#223=FILL_AREA_STYLE('',(#227));
#224=FILL_AREA_STYLE('',(#228));
#225=FILL_AREA_STYLE('',(#229));
#226=FILL_AREA_STYLE_COLOUR('',#230);
#227=FILL_AREA_STYLE_COLOUR('',#231);
#228=FILL_AREA_STYLE_COLOUR('',#232);
#229=FILL_AREA_STYLE_COLOUR('',#233);
#230=COLOUR_RGB('',0.749019607843137,0.749019607843137,0.749019607843137);
#231=COLOUR_RGB('',1.,1.,1.);
#232=COLOUR_RGB('',0.109803921568627,0.109803921568627,0.129411764705882);
#233=COLOUR_RGB('',0.6,0.6,0.6);
ENDSEC;
END-ISO-10303-21;
