ISO-10303-21;
HEADER;
/* Generated by software containing ST-Developer
 * from STEP Tools, Inc. (www.steptools.com) 
 */

FILE_DESCRIPTION(
/* description */ (''),
/* implementation_level */ '2;1');

FILE_NAME(
/* name */ 'KJ1,5_G6,5EB30.stp',
/* time_stamp */ '2026-01-07T13:40:05+01:00',
/* author */ ('L43FV9'),
/* organization */ (''),
/* preprocessor_version */ 'ST-DEVELOPER v20.1',
/* originating_system */ 'Autodesk Inventor 2026',
/* authorisation */ '');

FILE_SCHEMA (('AUTOMOTIVE_DESIGN { 1 0 10303 214 3 1 1 }'));
ENDSEC;

DATA;
#10=MECHANICAL_DESIGN_GEOMETRIC_PRESENTATION_REPRESENTATION('',(#78,#79,
#80,#81,#82,#83,#84),#182);
#11=SHAPE_REPRESENTATION_RELATIONSHIP('SRR','None',#189,#12);
#12=ADVANCED_BREP_SHAPE_REPRESENTATION('',(#13),#181);
#13=MANIFOLD_SOLID_BREP('Volumenk\X\F6rper1',#91);
#14=FACE_BOUND('',#35,.T.);
#15=LINE('',#171,#17);
#16=LINE('',#178,#18);
#17=VECTOR('',#145,1.475);
#18=VECTOR('',#156,3.25);
#19=CYLINDRICAL_SURFACE('',#120,1.475);
#20=CYLINDRICAL_SURFACE('',#126,3.25);
#21=PLANE('',#119);
#22=PLANE('',#123);
#23=PLANE('',#124);
#24=FACE_OUTER_BOUND('',#30,.T.);
#25=FACE_OUTER_BOUND('',#31,.T.);
#26=FACE_OUTER_BOUND('',#32,.T.);
#27=FACE_OUTER_BOUND('',#33,.T.);
#28=FACE_OUTER_BOUND('',#34,.T.);
#29=FACE_OUTER_BOUND('',#36,.T.);
#30=EDGE_LOOP('',(#59,#60,#61,#62,#63));
#31=EDGE_LOOP('',(#64));
#32=EDGE_LOOP('',(#65,#66,#67,#68));
#33=EDGE_LOOP('',(#69));
#34=EDGE_LOOP('',(#70));
#35=EDGE_LOOP('',(#71));
#36=EDGE_LOOP('',(#72,#73,#74,#75,#76));
#37=CIRCLE('',#115,3.);
#38=CIRCLE('',#116,0.25);
#39=CIRCLE('',#117,3.25);
#40=CIRCLE('',#118,3.25);
#41=CIRCLE('',#121,1.475);
#42=CIRCLE('',#122,1.475);
#43=CIRCLE('',#125,3.25);
#44=VERTEX_POINT('',#159);
#45=VERTEX_POINT('',#161);
#46=VERTEX_POINT('',#163);
#47=VERTEX_POINT('',#168);
#48=VERTEX_POINT('',#170);
#49=VERTEX_POINT('',#175);
#50=EDGE_CURVE('',#44,#44,#37,.T.);
#51=EDGE_CURVE('',#44,#45,#38,.T.);
#52=EDGE_CURVE('',#45,#46,#39,.T.);
#53=EDGE_CURVE('',#46,#45,#40,.T.);
#54=EDGE_CURVE('',#47,#47,#41,.T.);
#55=EDGE_CURVE('',#47,#48,#15,.T.);
#56=EDGE_CURVE('',#48,#48,#42,.T.);
#57=EDGE_CURVE('',#49,#49,#43,.T.);
#58=EDGE_CURVE('',#49,#46,#16,.T.);
#59=ORIENTED_EDGE('',*,*,#50,.F.);
#60=ORIENTED_EDGE('',*,*,#51,.T.);
#61=ORIENTED_EDGE('',*,*,#52,.T.);
#62=ORIENTED_EDGE('',*,*,#53,.T.);
#63=ORIENTED_EDGE('',*,*,#51,.F.);
#64=ORIENTED_EDGE('',*,*,#50,.T.);
#65=ORIENTED_EDGE('',*,*,#54,.T.);
#66=ORIENTED_EDGE('',*,*,#55,.T.);
#67=ORIENTED_EDGE('',*,*,#56,.F.);
#68=ORIENTED_EDGE('',*,*,#55,.F.);
#69=ORIENTED_EDGE('',*,*,#54,.F.);
#70=ORIENTED_EDGE('',*,*,#57,.T.);
#71=ORIENTED_EDGE('',*,*,#56,.T.);
#72=ORIENTED_EDGE('',*,*,#57,.F.);
#73=ORIENTED_EDGE('',*,*,#58,.T.);
#74=ORIENTED_EDGE('',*,*,#52,.F.);
#75=ORIENTED_EDGE('',*,*,#53,.F.);
#76=ORIENTED_EDGE('',*,*,#58,.F.);
#77=TOROIDAL_SURFACE('',#114,3.,0.25);
#78=STYLED_ITEM('',(#199),#85);
#79=STYLED_ITEM('',(#199),#86);
#80=STYLED_ITEM('',(#200),#87);
#81=STYLED_ITEM('',(#200),#88);
#82=STYLED_ITEM('',(#201),#89);
#83=STYLED_ITEM('',(#199),#90);
#84=STYLED_ITEM('',(#198),#13);
#85=ADVANCED_FACE('',(#24),#77,.T.);
#86=ADVANCED_FACE('',(#25),#21,.T.);
#87=ADVANCED_FACE('',(#26),#19,.T.);
#88=ADVANCED_FACE('',(#27),#22,.F.);
#89=ADVANCED_FACE('',(#28,#14),#23,.T.);
#90=ADVANCED_FACE('',(#29),#20,.T.);
#91=CLOSED_SHELL('',(#85,#86,#87,#88,#89,#90));
#92=DERIVED_UNIT_ELEMENT(#95,1.);
#93=DERIVED_UNIT_ELEMENT(#184,-3.);
#94=DIMENSIONAL_EXPONENTS(0.,1.,0.,0.,0.,0.,0.);
#95=(
CONVERSION_BASED_UNIT('gram',#97)
MASS_UNIT()
NAMED_UNIT(#94)
);
#96=(
MASS_UNIT()
NAMED_UNIT(*)
SI_UNIT(.KILO.,.GRAM.)
);
#97=MASS_MEASURE_WITH_UNIT(MASS_MEASURE(0.001),#96);
#98=DERIVED_UNIT((#92,#93));
#99=MEASURE_REPRESENTATION_ITEM('density measure',
POSITIVE_RATIO_MEASURE(1.),#98);
#100=PROPERTY_DEFINITION_REPRESENTATION(#105,#102);
#101=PROPERTY_DEFINITION_REPRESENTATION(#106,#103);
#102=REPRESENTATION('material name',(#104),#181);
#103=REPRESENTATION('density',(#99),#181);
#104=DESCRIPTIVE_REPRESENTATION_ITEM('Generisch','Generisch');
#105=PROPERTY_DEFINITION('material property','material name',#191);
#106=PROPERTY_DEFINITION('material property','density of part',#191);
#107=DATE_TIME_ROLE('creation_date');
#108=APPLIED_DATE_AND_TIME_ASSIGNMENT(#109,#107,(#191));
#109=DATE_AND_TIME(#110,#111);
#110=CALENDAR_DATE(2026,7,1);
#111=LOCAL_TIME(0,0,0.,#112);
#112=COORDINATED_UNIVERSAL_TIME_OFFSET(0,0,.BEHIND.);
#113=AXIS2_PLACEMENT_3D('',#157,#127,#128);
#114=AXIS2_PLACEMENT_3D('',#158,#129,#130);
#115=AXIS2_PLACEMENT_3D('',#160,#131,#132);
#116=AXIS2_PLACEMENT_3D('',#162,#133,#134);
#117=AXIS2_PLACEMENT_3D('',#164,#135,#136);
#118=AXIS2_PLACEMENT_3D('',#165,#137,#138);
#119=AXIS2_PLACEMENT_3D('',#166,#139,#140);
#120=AXIS2_PLACEMENT_3D('',#167,#141,#142);
#121=AXIS2_PLACEMENT_3D('',#169,#143,#144);
#122=AXIS2_PLACEMENT_3D('',#172,#146,#147);
#123=AXIS2_PLACEMENT_3D('',#173,#148,#149);
#124=AXIS2_PLACEMENT_3D('',#174,#150,#151);
#125=AXIS2_PLACEMENT_3D('',#176,#152,#153);
#126=AXIS2_PLACEMENT_3D('',#177,#154,#155);
#127=DIRECTION('axis',(0.,0.,1.));
#128=DIRECTION('refdir',(1.,0.,0.));
#129=DIRECTION('center_axis',(-1.,-6.82383341585796E-16,-5.69152264165383E-16));
#130=DIRECTION('ref_axis',(6.3624319488134E-16,-0.996956688610507,0.0779574309143933));
#131=DIRECTION('center_axis',(-1.,-6.82383341585796E-16,-5.69152264165383E-16));
#132=DIRECTION('ref_axis',(-6.206170088063E-16,0.0779574309143933,0.996956688610507));
#133=DIRECTION('center_axis',(6.206170088063E-16,-0.0779574309143934,-0.996956688610507));
#134=DIRECTION('ref_axis',(-6.35175672742277E-16,0.996956688610507,-0.0779574309143934));
#135=DIRECTION('center_axis',(-1.,-6.82383341585796E-16,-5.69152264165383E-16));
#136=DIRECTION('ref_axis',(-6.206170088063E-16,0.0779574309143933,0.996956688610507));
#137=DIRECTION('center_axis',(-1.,-6.82383341585796E-16,-5.69152264165383E-16));
#138=DIRECTION('ref_axis',(-6.206170088063E-16,0.0779574309143933,0.996956688610507));
#139=DIRECTION('center_axis',(-1.,-6.82383341585796E-16,-5.69152264165383E-16));
#140=DIRECTION('ref_axis',(6.35936988276904E-16,-0.996956688610507,0.0779574309143933));
#141=DIRECTION('center_axis',(1.,-5.55483666363537E-17,2.31111593326468E-32));
#142=DIRECTION('ref_axis',(-5.47883119283793E-17,-0.986317244700461,-0.164858402292669));
#143=DIRECTION('center_axis',(-1.,5.55483666363537E-17,-2.31111593326468E-32));
#144=DIRECTION('ref_axis',(-5.47883119283793E-17,-0.986317244700461,-0.164858402292669));
#145=DIRECTION('',(-1.,5.55483666363537E-17,-2.31111593326468E-32));
#146=DIRECTION('center_axis',(-1.,0.,0.));
#147=DIRECTION('ref_axis',(-5.47883119283793E-17,-0.986317244700461,-0.164858402292669));
#148=DIRECTION('center_axis',(-1.,5.55483666363537E-17,-2.31111593326468E-32));
#149=DIRECTION('ref_axis',(-5.47883119283793E-17,-0.986317244700461,-0.164858402292669));
#150=DIRECTION('center_axis',(1.,0.,0.));
#151=DIRECTION('ref_axis',(0.,0.,-1.));
#152=DIRECTION('center_axis',(1.,0.,0.));
#153=DIRECTION('ref_axis',(0.,1.,0.));
#154=DIRECTION('center_axis',(1.,0.,0.));
#155=DIRECTION('ref_axis',(0.,1.,0.));
#156=DIRECTION('',(-1.,0.,0.));
#157=CARTESIAN_POINT('',(0.,0.,0.));
#158=CARTESIAN_POINT('Origin',(-0.0500000000000008,-2.07713146411586E-16,
-3.69063762550654E-17));
#159=CARTESIAN_POINT('',(-0.300000000000003,2.99087006583152,-0.233872292743181));
#160=CARTESIAN_POINT('Origin',(-0.300000000000001,-3.78308981808035E-16,
-1.79194442296411E-16));
#161=CARTESIAN_POINT('',(-0.0500000000000028,3.24010923798415,-0.253361650471779));
#162=CARTESIAN_POINT('Origin',(-0.0500000000000027,2.99087006583152,-0.23387229274318));
#163=CARTESIAN_POINT('',(-0.0500000000000012,-3.25,-3.9801020972289E-16));
#164=CARTESIAN_POINT('Origin',(-0.0500000000000007,-2.07713146411586E-16,
-3.69063762550653E-17));
#165=CARTESIAN_POINT('Origin',(-0.0500000000000007,-2.07713146411586E-16,
-3.69063762550653E-17));
#166=CARTESIAN_POINT('Origin',(-0.300000000000002,0.11693614637159,1.49543503291576));
#167=CARTESIAN_POINT('Origin',(30.,-1.16212532268678E-15,1.26873671615373E-15));
#168=CARTESIAN_POINT('',(80.,1.45481793593318,0.243166143381689));
#169=CARTESIAN_POINT('Origin',(80.,-3.93954365450447E-15,1.26873671615373E-15));
#170=CARTESIAN_POINT('',(30.,1.45481793593318,0.243166143381689));
#171=CARTESIAN_POINT('',(30.,1.45481793593318,0.243166143381689));
#172=CARTESIAN_POINT('Origin',(30.,-1.16212532268678E-15,1.26873671615373E-15));
#173=CARTESIAN_POINT('Origin',(80.,-3.93954365450447E-15,1.26873671615373E-15));
#174=CARTESIAN_POINT('Origin',(30.,3.0875,0.));
#175=CARTESIAN_POINT('',(30.,-3.25,-3.9801020972289E-16));
#176=CARTESIAN_POINT('Origin',(30.,0.,0.));
#177=CARTESIAN_POINT('Origin',(15.,0.,0.));
#178=CARTESIAN_POINT('',(15.,-3.25,-3.9801020972289E-16));
#179=UNCERTAINTY_MEASURE_WITH_UNIT(LENGTH_MEASURE(0.01),#183,
'DISTANCE_ACCURACY_VALUE',
'Maximum model space distance between geometric entities at asserted c
onnectivities');
#180=UNCERTAINTY_MEASURE_WITH_UNIT(LENGTH_MEASURE(0.01),#183,
'DISTANCE_ACCURACY_VALUE',
'Maximum model space distance between geometric entities at asserted c
onnectivities');
#181=(
GEOMETRIC_REPRESENTATION_CONTEXT(3)
GLOBAL_UNCERTAINTY_ASSIGNED_CONTEXT((#179))
GLOBAL_UNIT_ASSIGNED_CONTEXT((#183,#185,#186))
REPRESENTATION_CONTEXT('','3D')
);
#182=(
GEOMETRIC_REPRESENTATION_CONTEXT(3)
GLOBAL_UNCERTAINTY_ASSIGNED_CONTEXT((#180))
GLOBAL_UNIT_ASSIGNED_CONTEXT((#183,#185,#186))
REPRESENTATION_CONTEXT('','3D')
);
#183=(
LENGTH_UNIT()
NAMED_UNIT(*)
SI_UNIT(.MILLI.,.METRE.)
);
#184=(
LENGTH_UNIT()
NAMED_UNIT(*)
SI_UNIT(.CENTI.,.METRE.)
);
#185=(
NAMED_UNIT(*)
PLANE_ANGLE_UNIT()
SI_UNIT($,.RADIAN.)
);
#186=(
NAMED_UNIT(*)
SI_UNIT($,.STERADIAN.)
SOLID_ANGLE_UNIT()
);
#187=SHAPE_DEFINITION_REPRESENTATION(#188,#189);
#188=PRODUCT_DEFINITION_SHAPE('',$,#191);
#189=SHAPE_REPRESENTATION('',(#113),#181);
#190=PRODUCT_DEFINITION_CONTEXT('part definition',#195,'design');
#191=PRODUCT_DEFINITION('KJ1,5_G6,5EB30_Vereinfachen_1',
'KJ1,5_G6,5EB30_Vereinfachen_1',#192,#190);
#192=PRODUCT_DEFINITION_FORMATION('',$,#197);
#193=PRODUCT_RELATED_PRODUCT_CATEGORY('KJ1,5_G6,5EB30_Vereinfachen_1',
'KJ1,5_G6,5EB30_Vereinfachen_1',(#197));
#194=APPLICATION_PROTOCOL_DEFINITION('international standard',
'automotive_design',2009,#195);
#195=APPLICATION_CONTEXT(
'Core Data for Automotive Mechanical Design Process');
#196=PRODUCT_CONTEXT('part definition',#195,'mechanical');
#197=PRODUCT('KJ1,5_G6,5EB30_Vereinfachen_1',
'KJ1,5_G6,5EB30_Vereinfachen_1',$,(#196));
#198=PRESENTATION_STYLE_ASSIGNMENT((#202));
#199=PRESENTATION_STYLE_ASSIGNMENT((#203));
#200=PRESENTATION_STYLE_ASSIGNMENT((#204));
#201=PRESENTATION_STYLE_ASSIGNMENT((#205));
#202=SURFACE_STYLE_USAGE(.BOTH.,#214);
#203=SURFACE_STYLE_USAGE(.BOTH.,#215);
#204=SURFACE_STYLE_USAGE(.BOTH.,#216);
#205=SURFACE_STYLE_USAGE(.BOTH.,#217);
#206=SURFACE_STYLE_RENDERING_WITH_PROPERTIES($,#230,(#210));
#207=SURFACE_STYLE_RENDERING_WITH_PROPERTIES($,#231,(#211));
#208=SURFACE_STYLE_RENDERING_WITH_PROPERTIES($,#232,(#212));
#209=SURFACE_STYLE_RENDERING_WITH_PROPERTIES($,#233,(#213));
#210=SURFACE_STYLE_TRANSPARENT(0.);
#211=SURFACE_STYLE_TRANSPARENT(0.);
#212=SURFACE_STYLE_TRANSPARENT(0.);
#213=SURFACE_STYLE_TRANSPARENT(0.);
#214=SURFACE_SIDE_STYLE('',(#218,#206));
#215=SURFACE_SIDE_STYLE('',(#219,#207));
#216=SURFACE_SIDE_STYLE('',(#220,#208));
#217=SURFACE_SIDE_STYLE('',(#221,#209));
#218=SURFACE_STYLE_FILL_AREA(#222);
#219=SURFACE_STYLE_FILL_AREA(#223);
#220=SURFACE_STYLE_FILL_AREA(#224);
#221=SURFACE_STYLE_FILL_AREA(#225);
#222=FILL_AREA_STYLE('',(#226));
#223=FILL_AREA_STYLE('',(#227));
#224=FILL_AREA_STYLE('',(#228));
#225=FILL_AREA_STYLE('',(#229));
#226=FILL_AREA_STYLE_COLOUR('',#230);
#227=FILL_AREA_STYLE_COLOUR('',#231);
#228=FILL_AREA_STYLE_COLOUR('',#232);
#229=FILL_AREA_STYLE_COLOUR('',#233);
#230=COLOUR_RGB('',0.749019607843137,0.749019607843137,0.749019607843137);
#231=COLOUR_RGB('',0.109803921568627,0.109803921568627,0.129411764705882);
#232=COLOUR_RGB('',0.6,0.6,0.6);
#233=COLOUR_RGB('',1.,1.,1.);
ENDSEC;
END-ISO-10303-21;
