ISO-10303-21;
HEADER;
/* Generated by software containing ST-Developer
 * from STEP Tools, Inc. (www.steptools.com) 
 */

FILE_DESCRIPTION(
/* description */ ('diso G 22911 A'),
/* implementation_level */ '2;1');

FILE_NAME(
/* name */ 
'G:\\Sonderger\X\E4tebau\\SGB\\SGA\X\B4s\\Ablage beantw. SGA\X\B4s\\SH
\\SH 22911\\ 3D\\SH22911-M27.stp',
/* time_stamp */ '2015-04-23T13:16:25+02:00',
/* author */ ('ljw'),
/* organization */ (''),
/* preprocessor_version */ 'ST-DEVELOPER v15.6',
/* originating_system */ 'Autodesk Inventor 2015',
/* authorisation */ '');

FILE_SCHEMA (('AUTOMOTIVE_DESIGN { 1 0 10303 214 3 1 1 }'));
ENDSEC;

DATA;
#10=MECHANICAL_DESIGN_GEOMETRIC_PRESENTATION_REPRESENTATION('',(#13),#663);
#11=SHAPE_REPRESENTATION_RELATIONSHIP('SRR','None',#672,#12);
#12=ADVANCED_BREP_SHAPE_REPRESENTATION($,(#14),#662);
#13=STYLED_ITEM('',(#681),#14);
#14=MANIFOLD_SOLID_BREP('Volumenk\X\F6rper6',#395);
#15=PLANE('',#421);
#16=PLANE('',#422);
#17=PLANE('',#426);
#18=PLANE('',#430);
#19=PLANE('',#431);
#20=PLANE('',#432);
#21=PLANE('',#433);
#22=PLANE('',#434);
#23=PLANE('',#435);
#24=PLANE('',#436);
#25=PLANE('',#437);
#26=PLANE('',#438);
#27=LINE('',#577,#55);
#28=LINE('',#581,#56);
#29=LINE('',#586,#57);
#30=LINE('',#590,#58);
#31=LINE('',#595,#59);
#32=LINE('',#599,#60);
#33=LINE('',#604,#61);
#34=LINE('',#608,#62);
#35=LINE('',#611,#63);
#36=LINE('',#612,#64);
#37=LINE('',#616,#65);
#38=LINE('',#618,#66);
#39=LINE('',#620,#67);
#40=LINE('',#621,#68);
#41=LINE('',#622,#69);
#42=LINE('',#623,#70);
#43=LINE('',#624,#71);
#44=LINE('',#637,#72);
#45=LINE('',#639,#73);
#46=LINE('',#641,#74);
#47=LINE('',#646,#75);
#48=LINE('',#647,#76);
#49=LINE('',#648,#77);
#50=LINE('',#651,#78);
#51=LINE('',#652,#79);
#52=LINE('',#655,#80);
#53=LINE('',#656,#81);
#54=LINE('',#658,#82);
#55=VECTOR('',#467,8.);
#56=VECTOR('',#470,8.);
#57=VECTOR('',#475,8.);
#58=VECTOR('',#478,8.);
#59=VECTOR('',#483,8.);
#60=VECTOR('',#486,8.);
#61=VECTOR('',#491,8.);
#62=VECTOR('',#494,8.);
#63=VECTOR('',#499,28.4);
#64=VECTOR('',#500,28.4);
#65=VECTOR('',#503,36.5);
#66=VECTOR('',#504,34.5);
#67=VECTOR('',#505,36.5);
#68=VECTOR('',#506,34.5);
#69=VECTOR('',#507,30.4);
#70=VECTOR('',#508,28.4);
#71=VECTOR('',#509,30.4);
#72=VECTOR('',#526,30.4);
#73=VECTOR('',#529,28.4);
#74=VECTOR('',#532,30.4);
#75=VECTOR('',#537,34.5);
#76=VECTOR('',#538,12.);
#77=VECTOR('',#539,12.);
#78=VECTOR('',#542,36.5);
#79=VECTOR('',#543,12.);
#80=VECTOR('',#546,34.5);
#81=VECTOR('',#547,12.);
#82=VECTOR('',#550,36.5);
#83=FACE_BOUND('',#124,.T.);
#84=FACE_BOUND('',#126,.T.);
#85=FACE_BOUND('',#128,.T.);
#86=FACE_BOUND('',#130,.T.);
#87=FACE_BOUND('',#136,.T.);
#88=FACE_BOUND('',#138,.T.);
#89=FACE_BOUND('',#140,.T.);
#90=FACE_BOUND('',#142,.T.);
#91=FACE_BOUND('',#144,.T.);
#92=FACE_BOUND('',#146,.T.);
#93=FACE_BOUND('',#148,.T.);
#94=FACE_BOUND('',#150,.T.);
#95=FACE_BOUND('',#152,.T.);
#96=FACE_BOUND('',#154,.T.);
#97=FACE_BOUND('',#156,.T.);
#98=FACE_BOUND('',#158,.T.);
#99=FACE_BOUND('',#160,.T.);
#100=FACE_BOUND('',#162,.T.);
#101=FACE_OUTER_BOUND('',#123,.T.);
#102=FACE_OUTER_BOUND('',#125,.T.);
#103=FACE_OUTER_BOUND('',#127,.T.);
#104=FACE_OUTER_BOUND('',#129,.T.);
#105=FACE_OUTER_BOUND('',#131,.T.);
#106=FACE_OUTER_BOUND('',#132,.T.);
#107=FACE_OUTER_BOUND('',#133,.T.);
#108=FACE_OUTER_BOUND('',#134,.T.);
#109=FACE_OUTER_BOUND('',#135,.T.);
#110=FACE_OUTER_BOUND('',#137,.T.);
#111=FACE_OUTER_BOUND('',#139,.T.);
#112=FACE_OUTER_BOUND('',#141,.T.);
#113=FACE_OUTER_BOUND('',#143,.T.);
#114=FACE_OUTER_BOUND('',#145,.T.);
#115=FACE_OUTER_BOUND('',#147,.T.);
#116=FACE_OUTER_BOUND('',#149,.T.);
#117=FACE_OUTER_BOUND('',#151,.T.);
#118=FACE_OUTER_BOUND('',#153,.T.);
#119=FACE_OUTER_BOUND('',#155,.T.);
#120=FACE_OUTER_BOUND('',#157,.T.);
#121=FACE_OUTER_BOUND('',#159,.T.);
#122=FACE_OUTER_BOUND('',#161,.T.);
#123=EDGE_LOOP('',(#267));
#124=EDGE_LOOP('',(#268));
#125=EDGE_LOOP('',(#269));
#126=EDGE_LOOP('',(#270));
#127=EDGE_LOOP('',(#271));
#128=EDGE_LOOP('',(#272));
#129=EDGE_LOOP('',(#273));
#130=EDGE_LOOP('',(#274));
#131=EDGE_LOOP('',(#275,#276,#277,#278));
#132=EDGE_LOOP('',(#279,#280,#281,#282));
#133=EDGE_LOOP('',(#283,#284,#285,#286));
#134=EDGE_LOOP('',(#287,#288,#289,#290));
#135=EDGE_LOOP('',(#291,#292,#293,#294));
#136=EDGE_LOOP('',(#295));
#137=EDGE_LOOP('',(#296,#297,#298,#299));
#138=EDGE_LOOP('',(#300,#301,#302,#303,#304,#305,#306,#307));
#139=EDGE_LOOP('',(#308));
#140=EDGE_LOOP('',(#309));
#141=EDGE_LOOP('',(#310));
#142=EDGE_LOOP('',(#311));
#143=EDGE_LOOP('',(#312));
#144=EDGE_LOOP('',(#313));
#145=EDGE_LOOP('',(#314,#315,#316,#317));
#146=EDGE_LOOP('',(#318));
#147=EDGE_LOOP('',(#319,#320,#321,#322));
#148=EDGE_LOOP('',(#323));
#149=EDGE_LOOP('',(#324,#325,#326,#327));
#150=EDGE_LOOP('',(#328));
#151=EDGE_LOOP('',(#329,#330,#331,#332,#333,#334,#335,#336));
#152=EDGE_LOOP('',(#337));
#153=EDGE_LOOP('',(#338,#339,#340,#341));
#154=EDGE_LOOP('',(#342));
#155=EDGE_LOOP('',(#343,#344,#345,#346));
#156=EDGE_LOOP('',(#347));
#157=EDGE_LOOP('',(#348,#349,#350,#351));
#158=EDGE_LOOP('',(#352));
#159=EDGE_LOOP('',(#353,#354,#355,#356));
#160=EDGE_LOOP('',(#357));
#161=EDGE_LOOP('',(#358,#359,#360,#361));
#162=EDGE_LOOP('',(#362));
#163=CIRCLE('',#398,0.7835);
#164=CIRCLE('',#399,0.7835);
#165=CIRCLE('',#401,0.7835);
#166=CIRCLE('',#402,0.7835);
#167=CIRCLE('',#404,0.7835);
#168=CIRCLE('',#405,0.7835);
#169=CIRCLE('',#407,0.7835);
#170=CIRCLE('',#408,0.7835);
#171=CIRCLE('',#410,1.);
#172=CIRCLE('',#411,1.);
#173=CIRCLE('',#413,1.);
#174=CIRCLE('',#414,1.);
#175=CIRCLE('',#416,1.);
#176=CIRCLE('',#417,1.);
#177=CIRCLE('',#419,1.);
#178=CIRCLE('',#420,1.);
#179=CIRCLE('',#424,13.6);
#180=CIRCLE('',#425,13.6);
#181=CIRCLE('',#427,13.094);
#182=CIRCLE('',#429,13.094);
#183=VERTEX_POINT('',#555);
#184=VERTEX_POINT('',#557);
#185=VERTEX_POINT('',#560);
#186=VERTEX_POINT('',#562);
#187=VERTEX_POINT('',#565);
#188=VERTEX_POINT('',#567);
#189=VERTEX_POINT('',#570);
#190=VERTEX_POINT('',#572);
#191=VERTEX_POINT('',#575);
#192=VERTEX_POINT('',#576);
#193=VERTEX_POINT('',#578);
#194=VERTEX_POINT('',#580);
#195=VERTEX_POINT('',#584);
#196=VERTEX_POINT('',#585);
#197=VERTEX_POINT('',#587);
#198=VERTEX_POINT('',#589);
#199=VERTEX_POINT('',#593);
#200=VERTEX_POINT('',#594);
#201=VERTEX_POINT('',#596);
#202=VERTEX_POINT('',#598);
#203=VERTEX_POINT('',#602);
#204=VERTEX_POINT('',#603);
#205=VERTEX_POINT('',#605);
#206=VERTEX_POINT('',#607);
#207=VERTEX_POINT('',#614);
#208=VERTEX_POINT('',#615);
#209=VERTEX_POINT('',#617);
#210=VERTEX_POINT('',#619);
#211=VERTEX_POINT('',#626);
#212=VERTEX_POINT('',#628);
#213=VERTEX_POINT('',#631);
#214=VERTEX_POINT('',#634);
#215=VERTEX_POINT('',#644);
#216=VERTEX_POINT('',#645);
#217=VERTEX_POINT('',#650);
#218=VERTEX_POINT('',#654);
#219=EDGE_CURVE('',#183,#183,#163,.T.);
#220=EDGE_CURVE('',#184,#184,#164,.T.);
#221=EDGE_CURVE('',#185,#185,#165,.T.);
#222=EDGE_CURVE('',#186,#186,#166,.T.);
#223=EDGE_CURVE('',#187,#187,#167,.T.);
#224=EDGE_CURVE('',#188,#188,#168,.T.);
#225=EDGE_CURVE('',#189,#189,#169,.T.);
#226=EDGE_CURVE('',#190,#190,#170,.T.);
#227=EDGE_CURVE('',#191,#192,#27,.T.);
#228=EDGE_CURVE('',#191,#193,#171,.T.);
#229=EDGE_CURVE('',#194,#193,#28,.T.);
#230=EDGE_CURVE('',#192,#194,#172,.T.);
#231=EDGE_CURVE('',#195,#196,#29,.T.);
#232=EDGE_CURVE('',#195,#197,#173,.T.);
#233=EDGE_CURVE('',#198,#197,#30,.T.);
#234=EDGE_CURVE('',#196,#198,#174,.T.);
#235=EDGE_CURVE('',#199,#200,#31,.T.);
#236=EDGE_CURVE('',#201,#199,#175,.T.);
#237=EDGE_CURVE('',#202,#201,#32,.T.);
#238=EDGE_CURVE('',#202,#200,#176,.T.);
#239=EDGE_CURVE('',#203,#204,#33,.T.);
#240=EDGE_CURVE('',#203,#205,#177,.T.);
#241=EDGE_CURVE('',#206,#205,#34,.T.);
#242=EDGE_CURVE('',#204,#206,#178,.T.);
#243=EDGE_CURVE('',#198,#192,#35,.T.);
#244=EDGE_CURVE('',#197,#191,#36,.T.);
#245=EDGE_CURVE('',#207,#208,#37,.T.);
#246=EDGE_CURVE('',#208,#209,#38,.T.);
#247=EDGE_CURVE('',#209,#210,#39,.T.);
#248=EDGE_CURVE('',#210,#207,#40,.T.);
#249=EDGE_CURVE('',#194,#204,#41,.T.);
#250=EDGE_CURVE('',#206,#201,#42,.T.);
#251=EDGE_CURVE('',#199,#196,#43,.T.);
#252=EDGE_CURVE('',#211,#211,#179,.T.);
#253=EDGE_CURVE('',#212,#212,#180,.T.);
#254=EDGE_CURVE('',#213,#213,#181,.T.);
#255=EDGE_CURVE('',#214,#214,#182,.T.);
#256=EDGE_CURVE('',#200,#195,#44,.T.);
#257=EDGE_CURVE('',#205,#202,#45,.T.);
#258=EDGE_CURVE('',#193,#203,#46,.T.);
#259=EDGE_CURVE('',#215,#216,#47,.T.);
#260=EDGE_CURVE('',#215,#207,#48,.T.);
#261=EDGE_CURVE('',#216,#210,#49,.T.);
#262=EDGE_CURVE('',#216,#217,#50,.T.);
#263=EDGE_CURVE('',#217,#209,#51,.T.);
#264=EDGE_CURVE('',#217,#218,#52,.T.);
#265=EDGE_CURVE('',#218,#208,#53,.T.);
#266=EDGE_CURVE('',#218,#215,#54,.T.);
#267=ORIENTED_EDGE('',*,*,#219,.F.);
#268=ORIENTED_EDGE('',*,*,#220,.F.);
#269=ORIENTED_EDGE('',*,*,#221,.F.);
#270=ORIENTED_EDGE('',*,*,#222,.F.);
#271=ORIENTED_EDGE('',*,*,#223,.F.);
#272=ORIENTED_EDGE('',*,*,#224,.F.);
#273=ORIENTED_EDGE('',*,*,#225,.F.);
#274=ORIENTED_EDGE('',*,*,#226,.F.);
#275=ORIENTED_EDGE('',*,*,#227,.F.);
#276=ORIENTED_EDGE('',*,*,#228,.T.);
#277=ORIENTED_EDGE('',*,*,#229,.F.);
#278=ORIENTED_EDGE('',*,*,#230,.F.);
#279=ORIENTED_EDGE('',*,*,#231,.F.);
#280=ORIENTED_EDGE('',*,*,#232,.T.);
#281=ORIENTED_EDGE('',*,*,#233,.F.);
#282=ORIENTED_EDGE('',*,*,#234,.F.);
#283=ORIENTED_EDGE('',*,*,#235,.F.);
#284=ORIENTED_EDGE('',*,*,#236,.F.);
#285=ORIENTED_EDGE('',*,*,#237,.F.);
#286=ORIENTED_EDGE('',*,*,#238,.T.);
#287=ORIENTED_EDGE('',*,*,#239,.F.);
#288=ORIENTED_EDGE('',*,*,#240,.T.);
#289=ORIENTED_EDGE('',*,*,#241,.F.);
#290=ORIENTED_EDGE('',*,*,#242,.F.);
#291=ORIENTED_EDGE('',*,*,#227,.T.);
#292=ORIENTED_EDGE('',*,*,#243,.F.);
#293=ORIENTED_EDGE('',*,*,#233,.T.);
#294=ORIENTED_EDGE('',*,*,#244,.T.);
#295=ORIENTED_EDGE('',*,*,#221,.T.);
#296=ORIENTED_EDGE('',*,*,#245,.T.);
#297=ORIENTED_EDGE('',*,*,#246,.T.);
#298=ORIENTED_EDGE('',*,*,#247,.T.);
#299=ORIENTED_EDGE('',*,*,#248,.T.);
#300=ORIENTED_EDGE('',*,*,#230,.T.);
#301=ORIENTED_EDGE('',*,*,#249,.T.);
#302=ORIENTED_EDGE('',*,*,#242,.T.);
#303=ORIENTED_EDGE('',*,*,#250,.T.);
#304=ORIENTED_EDGE('',*,*,#236,.T.);
#305=ORIENTED_EDGE('',*,*,#251,.T.);
#306=ORIENTED_EDGE('',*,*,#234,.T.);
#307=ORIENTED_EDGE('',*,*,#243,.T.);
#308=ORIENTED_EDGE('',*,*,#252,.F.);
#309=ORIENTED_EDGE('',*,*,#253,.F.);
#310=ORIENTED_EDGE('',*,*,#253,.T.);
#311=ORIENTED_EDGE('',*,*,#254,.F.);
#312=ORIENTED_EDGE('',*,*,#254,.T.);
#313=ORIENTED_EDGE('',*,*,#255,.F.);
#314=ORIENTED_EDGE('',*,*,#231,.T.);
#315=ORIENTED_EDGE('',*,*,#251,.F.);
#316=ORIENTED_EDGE('',*,*,#235,.T.);
#317=ORIENTED_EDGE('',*,*,#256,.T.);
#318=ORIENTED_EDGE('',*,*,#225,.T.);
#319=ORIENTED_EDGE('',*,*,#237,.T.);
#320=ORIENTED_EDGE('',*,*,#250,.F.);
#321=ORIENTED_EDGE('',*,*,#241,.T.);
#322=ORIENTED_EDGE('',*,*,#257,.T.);
#323=ORIENTED_EDGE('',*,*,#220,.T.);
#324=ORIENTED_EDGE('',*,*,#229,.T.);
#325=ORIENTED_EDGE('',*,*,#258,.T.);
#326=ORIENTED_EDGE('',*,*,#239,.T.);
#327=ORIENTED_EDGE('',*,*,#249,.F.);
#328=ORIENTED_EDGE('',*,*,#224,.T.);
#329=ORIENTED_EDGE('',*,*,#244,.F.);
#330=ORIENTED_EDGE('',*,*,#232,.F.);
#331=ORIENTED_EDGE('',*,*,#256,.F.);
#332=ORIENTED_EDGE('',*,*,#238,.F.);
#333=ORIENTED_EDGE('',*,*,#257,.F.);
#334=ORIENTED_EDGE('',*,*,#240,.F.);
#335=ORIENTED_EDGE('',*,*,#258,.F.);
#336=ORIENTED_EDGE('',*,*,#228,.F.);
#337=ORIENTED_EDGE('',*,*,#255,.T.);
#338=ORIENTED_EDGE('',*,*,#259,.F.);
#339=ORIENTED_EDGE('',*,*,#260,.T.);
#340=ORIENTED_EDGE('',*,*,#248,.F.);
#341=ORIENTED_EDGE('',*,*,#261,.F.);
#342=ORIENTED_EDGE('',*,*,#219,.T.);
#343=ORIENTED_EDGE('',*,*,#262,.F.);
#344=ORIENTED_EDGE('',*,*,#261,.T.);
#345=ORIENTED_EDGE('',*,*,#247,.F.);
#346=ORIENTED_EDGE('',*,*,#263,.F.);
#347=ORIENTED_EDGE('',*,*,#226,.T.);
#348=ORIENTED_EDGE('',*,*,#264,.F.);
#349=ORIENTED_EDGE('',*,*,#263,.T.);
#350=ORIENTED_EDGE('',*,*,#246,.F.);
#351=ORIENTED_EDGE('',*,*,#265,.F.);
#352=ORIENTED_EDGE('',*,*,#222,.T.);
#353=ORIENTED_EDGE('',*,*,#266,.F.);
#354=ORIENTED_EDGE('',*,*,#265,.T.);
#355=ORIENTED_EDGE('',*,*,#245,.F.);
#356=ORIENTED_EDGE('',*,*,#260,.F.);
#357=ORIENTED_EDGE('',*,*,#223,.T.);
#358=ORIENTED_EDGE('',*,*,#266,.T.);
#359=ORIENTED_EDGE('',*,*,#259,.T.);
#360=ORIENTED_EDGE('',*,*,#262,.T.);
#361=ORIENTED_EDGE('',*,*,#264,.T.);
#362=ORIENTED_EDGE('',*,*,#252,.T.);
#363=CYLINDRICAL_SURFACE('',#397,0.7835);
#364=CYLINDRICAL_SURFACE('',#400,0.7835);
#365=CYLINDRICAL_SURFACE('',#403,0.7835);
#366=CYLINDRICAL_SURFACE('',#406,0.7835);
#367=CYLINDRICAL_SURFACE('',#409,1.);
#368=CYLINDRICAL_SURFACE('',#412,1.);
#369=CYLINDRICAL_SURFACE('',#415,1.);
#370=CYLINDRICAL_SURFACE('',#418,1.);
#371=CYLINDRICAL_SURFACE('',#423,13.6);
#372=CYLINDRICAL_SURFACE('',#428,13.094);
#373=ADVANCED_FACE('',(#101,#83),#363,.F.);
#374=ADVANCED_FACE('',(#102,#84),#364,.F.);
#375=ADVANCED_FACE('',(#103,#85),#365,.F.);
#376=ADVANCED_FACE('',(#104,#86),#366,.F.);
#377=ADVANCED_FACE('',(#105),#367,.F.);
#378=ADVANCED_FACE('',(#106),#368,.F.);
#379=ADVANCED_FACE('',(#107),#369,.F.);
#380=ADVANCED_FACE('',(#108),#370,.F.);
#381=ADVANCED_FACE('',(#109,#87),#15,.F.);
#382=ADVANCED_FACE('',(#110,#88),#16,.T.);
#383=ADVANCED_FACE('',(#111,#89),#371,.F.);
#384=ADVANCED_FACE('',(#112,#90),#17,.T.);
#385=ADVANCED_FACE('',(#113,#91),#372,.F.);
#386=ADVANCED_FACE('',(#114,#92),#18,.F.);
#387=ADVANCED_FACE('',(#115,#93),#19,.F.);
#388=ADVANCED_FACE('',(#116,#94),#20,.F.);
#389=ADVANCED_FACE('',(#117,#95),#21,.F.);
#390=ADVANCED_FACE('',(#118,#96),#22,.T.);
#391=ADVANCED_FACE('',(#119,#97),#23,.T.);
#392=ADVANCED_FACE('',(#120,#98),#24,.T.);
#393=ADVANCED_FACE('',(#121,#99),#25,.T.);
#394=ADVANCED_FACE('',(#122,#100),#26,.F.);
#395=CLOSED_SHELL('',(#373,#374,#375,#376,#377,#378,#379,#380,#381,#382,
#383,#384,#385,#386,#387,#388,#389,#390,#391,#392,#393,#394));
#396=AXIS2_PLACEMENT_3D('placement',#553,#439,#440);
#397=AXIS2_PLACEMENT_3D('',#554,#441,#442);
#398=AXIS2_PLACEMENT_3D('',#556,#443,#444);
#399=AXIS2_PLACEMENT_3D('',#558,#445,#446);
#400=AXIS2_PLACEMENT_3D('',#559,#447,#448);
#401=AXIS2_PLACEMENT_3D('',#561,#449,#450);
#402=AXIS2_PLACEMENT_3D('',#563,#451,#452);
#403=AXIS2_PLACEMENT_3D('',#564,#453,#454);
#404=AXIS2_PLACEMENT_3D('',#566,#455,#456);
#405=AXIS2_PLACEMENT_3D('',#568,#457,#458);
#406=AXIS2_PLACEMENT_3D('',#569,#459,#460);
#407=AXIS2_PLACEMENT_3D('',#571,#461,#462);
#408=AXIS2_PLACEMENT_3D('',#573,#463,#464);
#409=AXIS2_PLACEMENT_3D('',#574,#465,#466);
#410=AXIS2_PLACEMENT_3D('',#579,#468,#469);
#411=AXIS2_PLACEMENT_3D('',#582,#471,#472);
#412=AXIS2_PLACEMENT_3D('',#583,#473,#474);
#413=AXIS2_PLACEMENT_3D('',#588,#476,#477);
#414=AXIS2_PLACEMENT_3D('',#591,#479,#480);
#415=AXIS2_PLACEMENT_3D('',#592,#481,#482);
#416=AXIS2_PLACEMENT_3D('',#597,#484,#485);
#417=AXIS2_PLACEMENT_3D('',#600,#487,#488);
#418=AXIS2_PLACEMENT_3D('',#601,#489,#490);
#419=AXIS2_PLACEMENT_3D('',#606,#492,#493);
#420=AXIS2_PLACEMENT_3D('',#609,#495,#496);
#421=AXIS2_PLACEMENT_3D('',#610,#497,#498);
#422=AXIS2_PLACEMENT_3D('',#613,#501,#502);
#423=AXIS2_PLACEMENT_3D('',#625,#510,#511);
#424=AXIS2_PLACEMENT_3D('',#627,#512,#513);
#425=AXIS2_PLACEMENT_3D('',#629,#514,#515);
#426=AXIS2_PLACEMENT_3D('',#630,#516,#517);
#427=AXIS2_PLACEMENT_3D('',#632,#518,#519);
#428=AXIS2_PLACEMENT_3D('',#633,#520,#521);
#429=AXIS2_PLACEMENT_3D('',#635,#522,#523);
#430=AXIS2_PLACEMENT_3D('',#636,#524,#525);
#431=AXIS2_PLACEMENT_3D('',#638,#527,#528);
#432=AXIS2_PLACEMENT_3D('',#640,#530,#531);
#433=AXIS2_PLACEMENT_3D('',#642,#533,#534);
#434=AXIS2_PLACEMENT_3D('',#643,#535,#536);
#435=AXIS2_PLACEMENT_3D('',#649,#540,#541);
#436=AXIS2_PLACEMENT_3D('',#653,#544,#545);
#437=AXIS2_PLACEMENT_3D('',#657,#548,#549);
#438=AXIS2_PLACEMENT_3D('',#659,#551,#552);
#439=DIRECTION('axis',(0.,0.,1.));
#440=DIRECTION('refdir',(1.,0.,0.));
#441=DIRECTION('center_axis',(1.,6.43607550507337E-17,0.));
#442=DIRECTION('ref_axis',(0.,0.,-1.));
#443=DIRECTION('center_axis',(-1.,-6.43607550507337E-17,0.));
#444=DIRECTION('ref_axis',(0.,0.,-1.));
#445=DIRECTION('center_axis',(1.,0.,0.));
#446=DIRECTION('ref_axis',(0.,0.,-1.));
#447=DIRECTION('center_axis',(1.,6.43607550507337E-17,0.));
#448=DIRECTION('ref_axis',(0.,0.,-1.));
#449=DIRECTION('center_axis',(-1.,0.,0.));
#450=DIRECTION('ref_axis',(0.,0.,-1.));
#451=DIRECTION('center_axis',(1.,0.,0.));
#452=DIRECTION('ref_axis',(0.,0.,-1.));
#453=DIRECTION('center_axis',(0.,-1.,0.));
#454=DIRECTION('ref_axis',(1.,0.,0.));
#455=DIRECTION('center_axis',(0.,-1.,0.));
#456=DIRECTION('ref_axis',(1.,0.,0.));
#457=DIRECTION('center_axis',(0.,1.,0.));
#458=DIRECTION('ref_axis',(1.,0.,0.));
#459=DIRECTION('center_axis',(0.,-1.,0.));
#460=DIRECTION('ref_axis',(1.,0.,0.));
#461=DIRECTION('center_axis',(0.,-1.,0.));
#462=DIRECTION('ref_axis',(1.,0.,0.));
#463=DIRECTION('center_axis',(0.,1.,0.));
#464=DIRECTION('ref_axis',(1.,0.,0.));
#465=DIRECTION('center_axis',(0.,0.,1.));
#466=DIRECTION('ref_axis',(-1.,0.,0.));
#467=DIRECTION('',(0.,0.,1.));
#468=DIRECTION('center_axis',(0.,0.,-1.));
#469=DIRECTION('ref_axis',(-1.,0.,0.));
#470=DIRECTION('',(0.,0.,-1.));
#471=DIRECTION('center_axis',(0.,0.,-1.));
#472=DIRECTION('ref_axis',(-1.,0.,0.));
#473=DIRECTION('center_axis',(0.,0.,1.));
#474=DIRECTION('ref_axis',(-1.,0.,0.));
#475=DIRECTION('',(0.,0.,1.));
#476=DIRECTION('center_axis',(0.,0.,-1.));
#477=DIRECTION('ref_axis',(-1.,0.,0.));
#478=DIRECTION('',(0.,0.,-1.));
#479=DIRECTION('center_axis',(0.,0.,-1.));
#480=DIRECTION('ref_axis',(-1.,0.,0.));
#481=DIRECTION('center_axis',(0.,0.,1.));
#482=DIRECTION('ref_axis',(-1.,0.,0.));
#483=DIRECTION('',(0.,0.,-1.));
#484=DIRECTION('center_axis',(0.,0.,-1.));
#485=DIRECTION('ref_axis',(-1.,0.,0.));
#486=DIRECTION('',(0.,0.,1.));
#487=DIRECTION('center_axis',(0.,0.,-1.));
#488=DIRECTION('ref_axis',(-1.,0.,0.));
#489=DIRECTION('center_axis',(0.,0.,1.));
#490=DIRECTION('ref_axis',(-1.,0.,0.));
#491=DIRECTION('',(0.,0.,1.));
#492=DIRECTION('center_axis',(0.,0.,-1.));
#493=DIRECTION('ref_axis',(-1.,0.,0.));
#494=DIRECTION('',(0.,0.,-1.));
#495=DIRECTION('center_axis',(0.,0.,-1.));
#496=DIRECTION('ref_axis',(-1.,0.,0.));
#497=DIRECTION('center_axis',(-1.,0.,0.));
#498=DIRECTION('ref_axis',(0.,1.,0.));
#499=DIRECTION('',(0.,1.,0.));
#500=DIRECTION('',(0.,1.,0.));
#501=DIRECTION('center_axis',(0.,0.,1.));
#502=DIRECTION('ref_axis',(1.,0.,0.));
#503=DIRECTION('',(-1.,0.,0.));
#504=DIRECTION('',(0.,-1.,0.));
#505=DIRECTION('',(1.,0.,0.));
#506=DIRECTION('',(-6.43607550507337E-17,1.,0.));
#507=DIRECTION('',(1.,0.,0.));
#508=DIRECTION('',(0.,-1.,0.));
#509=DIRECTION('',(-1.,0.,0.));
#510=DIRECTION('center_axis',(0.,0.,-1.));
#511=DIRECTION('ref_axis',(-1.,0.,0.));
#512=DIRECTION('center_axis',(0.,0.,1.));
#513=DIRECTION('ref_axis',(-1.,0.,0.));
#514=DIRECTION('center_axis',(0.,0.,-1.));
#515=DIRECTION('ref_axis',(-1.,0.,0.));
#516=DIRECTION('center_axis',(0.,0.,-1.));
#517=DIRECTION('ref_axis',(-1.,0.,0.));
#518=DIRECTION('center_axis',(0.,0.,-1.));
#519=DIRECTION('ref_axis',(1.,0.,0.));
#520=DIRECTION('center_axis',(0.,0.,1.));
#521=DIRECTION('ref_axis',(1.,0.,0.));
#522=DIRECTION('center_axis',(0.,0.,-1.));
#523=DIRECTION('ref_axis',(1.,0.,0.));
#524=DIRECTION('center_axis',(0.,-1.,0.));
#525=DIRECTION('ref_axis',(-1.,0.,0.));
#526=DIRECTION('',(-1.,0.,0.));
#527=DIRECTION('center_axis',(1.,0.,0.));
#528=DIRECTION('ref_axis',(0.,-1.,0.));
#529=DIRECTION('',(0.,-1.,0.));
#530=DIRECTION('center_axis',(0.,1.,0.));
#531=DIRECTION('ref_axis',(1.,0.,0.));
#532=DIRECTION('',(1.,0.,0.));
#533=DIRECTION('center_axis',(0.,0.,-1.));
#534=DIRECTION('ref_axis',(-1.,0.,0.));
#535=DIRECTION('center_axis',(1.,6.43607550507337E-17,0.));
#536=DIRECTION('ref_axis',(0.,1.,0.));
#537=DIRECTION('',(6.43607550507337E-17,-1.,0.));
#538=DIRECTION('',(0.,0.,1.));
#539=DIRECTION('',(0.,0.,1.));
#540=DIRECTION('center_axis',(0.,-1.,0.));
#541=DIRECTION('ref_axis',(1.,0.,0.));
#542=DIRECTION('',(-1.,0.,0.));
#543=DIRECTION('',(0.,0.,1.));
#544=DIRECTION('center_axis',(-1.,0.,0.));
#545=DIRECTION('ref_axis',(0.,-1.,0.));
#546=DIRECTION('',(0.,1.,0.));
#547=DIRECTION('',(0.,0.,1.));
#548=DIRECTION('center_axis',(0.,1.,0.));
#549=DIRECTION('ref_axis',(-1.,0.,0.));
#550=DIRECTION('',(1.,0.,0.));
#551=DIRECTION('center_axis',(0.,0.,1.));
#552=DIRECTION('ref_axis',(1.,0.,0.));
#553=CARTESIAN_POINT('',(0.,0.,0.));
#554=CARTESIAN_POINT('Origin',(-33.3881641811558,-3.32347123613294E-15,
8.));
#555=CARTESIAN_POINT('',(18.25,0.,7.2165));
#556=CARTESIAN_POINT('Origin',(18.25,0.,8.));
#557=CARTESIAN_POINT('',(16.2,-2.27890624567199E-16,8.7835));
#558=CARTESIAN_POINT('Origin',(16.2,-1.31939547854004E-16,8.));
#559=CARTESIAN_POINT('Origin',(-33.3881641811558,-3.32347123613294E-15,
8.));
#560=CARTESIAN_POINT('',(-16.2,-2.12127693478458E-15,8.7835));
#561=CARTESIAN_POINT('Origin',(-16.2,-2.21722801149778E-15,8.));
#562=CARTESIAN_POINT('',(-18.25,-2.44511863606498E-15,8.7835));
#563=CARTESIAN_POINT('Origin',(-18.25,-2.34916755935178E-15,8.));
#564=CARTESIAN_POINT('Origin',(0.,34.3881641811558,8.));
#565=CARTESIAN_POINT('',(-0.7835,17.25,8.));
#566=CARTESIAN_POINT('Origin',(0.,17.25,8.));
#567=CARTESIAN_POINT('',(-0.7835,15.2,8.));
#568=CARTESIAN_POINT('Origin',(0.,15.2,8.));
#569=CARTESIAN_POINT('Origin',(0.,34.3881641811558,8.));
#570=CARTESIAN_POINT('',(-0.7835,-15.2,8.));
#571=CARTESIAN_POINT('Origin',(0.,-15.2,8.));
#572=CARTESIAN_POINT('',(0.7835,-17.25,8.));
#573=CARTESIAN_POINT('Origin',(0.,-17.25,8.));
#574=CARTESIAN_POINT('Origin',(-16.2,15.2,4.));
#575=CARTESIAN_POINT('',(-16.2,14.2,4.));
#576=CARTESIAN_POINT('',(-16.2,14.2,12.));
#577=CARTESIAN_POINT('',(-16.2,14.2,4.));
#578=CARTESIAN_POINT('',(-15.2,15.2,4.));
#579=CARTESIAN_POINT('Origin',(-16.2,15.2,4.));
#580=CARTESIAN_POINT('',(-15.2,15.2,12.));
#581=CARTESIAN_POINT('',(-15.2,15.2,4.));
#582=CARTESIAN_POINT('Origin',(-16.2,15.2,12.));
#583=CARTESIAN_POINT('Origin',(-16.2,-15.2,4.));
#584=CARTESIAN_POINT('',(-15.2,-15.2,4.));
#585=CARTESIAN_POINT('',(-15.2,-15.2,12.));
#586=CARTESIAN_POINT('',(-15.2,-15.2,4.));
#587=CARTESIAN_POINT('',(-16.2,-14.2,4.));
#588=CARTESIAN_POINT('Origin',(-16.2,-15.2,4.));
#589=CARTESIAN_POINT('',(-16.2,-14.2,12.));
#590=CARTESIAN_POINT('',(-16.2,-14.2,4.));
#591=CARTESIAN_POINT('Origin',(-16.2,-15.2,12.));
#592=CARTESIAN_POINT('Origin',(16.2,-15.2,4.));
#593=CARTESIAN_POINT('',(15.2,-15.2,12.));
#594=CARTESIAN_POINT('',(15.2,-15.2,4.));
#595=CARTESIAN_POINT('',(15.2,-15.2,4.));
#596=CARTESIAN_POINT('',(16.2,-14.2,12.));
#597=CARTESIAN_POINT('Origin',(16.2,-15.2,12.));
#598=CARTESIAN_POINT('',(16.2,-14.2,4.));
#599=CARTESIAN_POINT('',(16.2,-14.2,4.));
#600=CARTESIAN_POINT('Origin',(16.2,-15.2,4.));
#601=CARTESIAN_POINT('Origin',(16.2,15.2,4.));
#602=CARTESIAN_POINT('',(15.2,15.2,4.));
#603=CARTESIAN_POINT('',(15.2,15.2,12.));
#604=CARTESIAN_POINT('',(15.2,15.2,4.));
#605=CARTESIAN_POINT('',(16.2,14.2,4.));
#606=CARTESIAN_POINT('Origin',(16.2,15.2,4.));
#607=CARTESIAN_POINT('',(16.2,14.2,12.));
#608=CARTESIAN_POINT('',(16.2,14.2,4.));
#609=CARTESIAN_POINT('Origin',(16.2,15.2,12.));
#610=CARTESIAN_POINT('Origin',(-16.2,-15.2,12.));
#611=CARTESIAN_POINT('',(-16.2,-7.6,12.));
#612=CARTESIAN_POINT('',(-16.2,-15.2,4.));
#613=CARTESIAN_POINT('Origin',(0.,0.,12.));
#614=CARTESIAN_POINT('',(18.25,17.25,12.));
#615=CARTESIAN_POINT('',(-18.25,17.25,12.));
#616=CARTESIAN_POINT('',(-18.25,17.25,12.));
#617=CARTESIAN_POINT('',(-18.25,-17.25,12.));
#618=CARTESIAN_POINT('',(-18.25,-17.25,12.));
#619=CARTESIAN_POINT('',(18.25,-17.25,12.));
#620=CARTESIAN_POINT('',(18.25,-17.25,12.));
#621=CARTESIAN_POINT('',(18.25,17.25,12.));
#622=CARTESIAN_POINT('',(-8.1,15.2,12.));
#623=CARTESIAN_POINT('',(16.2,7.6,12.));
#624=CARTESIAN_POINT('',(8.1,-15.2,12.));
#625=CARTESIAN_POINT('Origin',(0.,0.,0.5));
#626=CARTESIAN_POINT('',(-13.6,0.,0.));
#627=CARTESIAN_POINT('Origin',(0.,0.,0.));
#628=CARTESIAN_POINT('',(-13.6,0.,1.));
#629=CARTESIAN_POINT('Origin',(0.,0.,1.));
#630=CARTESIAN_POINT('Origin',(0.,0.,1.));
#631=CARTESIAN_POINT('',(-13.094,1.60355251880354E-15,0.999999999999996));
#632=CARTESIAN_POINT('Origin',(0.,0.,0.999999999999996));
#633=CARTESIAN_POINT('Origin',(0.,0.,-47.6381641811558));
#634=CARTESIAN_POINT('',(13.094,0.,4.));
#635=CARTESIAN_POINT('Origin',(0.,0.,4.));
#636=CARTESIAN_POINT('Origin',(16.2,-15.2,12.));
#637=CARTESIAN_POINT('',(16.2,-15.2,4.));
#638=CARTESIAN_POINT('Origin',(16.2,15.2,12.));
#639=CARTESIAN_POINT('',(16.2,15.2,4.));
#640=CARTESIAN_POINT('Origin',(-16.2,15.2,12.));
#641=CARTESIAN_POINT('',(-16.2,15.2,4.));
#642=CARTESIAN_POINT('Origin',(0.,0.,4.));
#643=CARTESIAN_POINT('Origin',(18.25,-17.25,0.));
#644=CARTESIAN_POINT('',(18.25,17.25,0.));
#645=CARTESIAN_POINT('',(18.25,-17.25,0.));
#646=CARTESIAN_POINT('',(18.25,17.25,0.));
#647=CARTESIAN_POINT('',(18.25,17.25,0.));
#648=CARTESIAN_POINT('',(18.25,-17.25,0.));
#649=CARTESIAN_POINT('Origin',(-18.25,-17.25,0.));
#650=CARTESIAN_POINT('',(-18.25,-17.25,0.));
#651=CARTESIAN_POINT('',(18.25,-17.25,0.));
#652=CARTESIAN_POINT('',(-18.25,-17.25,0.));
#653=CARTESIAN_POINT('Origin',(-18.25,17.25,0.));
#654=CARTESIAN_POINT('',(-18.25,17.25,0.));
#655=CARTESIAN_POINT('',(-18.25,-17.25,0.));
#656=CARTESIAN_POINT('',(-18.25,17.25,0.));
#657=CARTESIAN_POINT('Origin',(18.25,17.25,0.));
#658=CARTESIAN_POINT('',(-18.25,17.25,0.));
#659=CARTESIAN_POINT('Origin',(9.38216640528301E-16,0.,0.));
#660=UNCERTAINTY_MEASURE_WITH_UNIT(LENGTH_MEASURE(0.01),#664,
'DISTANCE_ACCURACY_VALUE',
'Maximum model space distance between geometric entities at asserted c
onnectivities');
#661=UNCERTAINTY_MEASURE_WITH_UNIT(LENGTH_MEASURE(1.E-6),#664,
'DISTANCE_ACCURACY_VALUE',
'Maximum model space distance between geometric entities at asserted c
onnectivities');
#662=(
GEOMETRIC_REPRESENTATION_CONTEXT(3)
GLOBAL_UNCERTAINTY_ASSIGNED_CONTEXT((#660))
GLOBAL_UNIT_ASSIGNED_CONTEXT((#664,#667,#665))
REPRESENTATION_CONTEXT('','3D')
);
#663=(
GEOMETRIC_REPRESENTATION_CONTEXT(3)
GLOBAL_UNCERTAINTY_ASSIGNED_CONTEXT((#661))
GLOBAL_UNIT_ASSIGNED_CONTEXT((#664,#667,#665))
REPRESENTATION_CONTEXT('','3D')
);
#664=(
LENGTH_UNIT()
NAMED_UNIT(*)
SI_UNIT(.MILLI.,.METRE.)
);
#665=(
NAMED_UNIT(*)
SI_UNIT($,.STERADIAN.)
SOLID_ANGLE_UNIT()
);
#666=DIMENSIONAL_EXPONENTS(0.,0.,0.,0.,0.,0.,0.);
#667=(
CONVERSION_BASED_UNIT('degree',#669)
NAMED_UNIT(#666)
PLANE_ANGLE_UNIT()
);
#668=(
NAMED_UNIT(*)
PLANE_ANGLE_UNIT()
SI_UNIT($,.RADIAN.)
);
#669=PLANE_ANGLE_MEASURE_WITH_UNIT(PLANE_ANGLE_MEASURE(0.01745329252),#668);
#670=SHAPE_DEFINITION_REPRESENTATION(#671,#672);
#671=PRODUCT_DEFINITION_SHAPE('',$,#674);
#672=SHAPE_REPRESENTATION('',(#396),#662);
#673=PRODUCT_DEFINITION_CONTEXT('part definition',#678,'design');
#674=PRODUCT_DEFINITION('SH22911-M27','SH22911-M27',#675,#673);
#675=PRODUCT_DEFINITION_FORMATION('',$,#680);
#676=PRODUCT_RELATED_PRODUCT_CATEGORY('SH22911-M27','SH22911-M27',(#680));
#677=APPLICATION_PROTOCOL_DEFINITION('international standard',
'automotive_design',2009,#678);
#678=APPLICATION_CONTEXT(
'Core Data for Automotive Mechanical Design Process');
#679=PRODUCT_CONTEXT('part definition',#678,'mechanical');
#680=PRODUCT('SH22911-M27','SH22911-M27',$,(#679));
#681=PRESENTATION_STYLE_ASSIGNMENT((#682));
#682=SURFACE_STYLE_USAGE(.BOTH.,#683);
#683=SURFACE_SIDE_STYLE($,(#684));
#684=SURFACE_STYLE_FILL_AREA(#685);
#685=FILL_AREA_STYLE($,(#686));
#686=FILL_AREA_STYLE_COLOUR($,#687);
#687=COLOUR_RGB('',0.749019607843137,0.749019607843137,0.749019607843137);
ENDSEC;
END-ISO-10303-21;
